Allergic Ii Peoples Tab - Star Fucking Hipsters




Band - Star f*****g Hipsters
Song - Allergic II Peoples
Album - Never Rest In Peace

Tabbed By : SumFX (Tyler Freear)

Really Cool Song 0.27 Secs Long

. = Palm Mute

Intro
|-----------------|
|-----------------|
|-----------------|
|-6-6-6-6-6-6-6-6-|
|-6-6-6-6-6-6-6-6-|
|-4-4-4-4-4-4-4-4-|

Riff 1
|----x3------|----------|
|------------|----------|
|------99-88-|-66889988-|
|-6666-99-88-|-66889988-| (x2)
|-6666-77-66-|-44667766-|
|-4444-------|----------|

Riff 2
|---x3---------|--------------|
|--------------|--------------|
|--------------|--------------|
|-4-444--6-666-|-4-444--3-----|
|-4-444--6-666-|-4-444--3-----|
|-2-222--4-444-|-2-222--1-----|
    ...    ...     ...

Very Easy Song By A Very Awesome Band!

Rate & Comment Please

ĂŽnscrie-te la newsletter


Join the ranks ! LIKE us on Facebook