All We Need Tab - Starfield






Intro-Gtr.1-a-g-d/f#
                       Gtr.2-w/ distortion(echo optional)(listen for timing)
      Gtr.2-e------------------------7-----------------------9h10p9-----|
            a-----10-------87------88-8------10------87-----------------|
            d-----------------------------------------------------------|
            g-----------------------------------------------------------|
            b-00------00-------00--------00------00------00-------------|
            e-----------------------------------------------------------|

                    Gtr.2 repeats intro 2x


verse-a-g-d/f#(listen for timing)


chorus-same as intro rhythm chords, just different timing-Gtr.1
        Gtr.2-I couldn't figure out the picking part...Sorry.

verse 2-same as verse 1,but with tremlo effect.

chorus- the same,just twice

                               gtr.2-fades in below on "come on sing your song..."   
  Listen for fret change.I've only listed one chord for each.

bridge-e--------------------------------------------------------------|
       a--5-7-8-5-7-8-10--12-10-14-10-15-10-17-15-12-10-14-10---------|
       d--------------------------------------------------------------|
       g--------------------------------------------------------------|
       b--------------------------------------------------------------|
       e--------------------------------------------------------------|

chorus-2x again. then intro. For outro, again listen for timing.

  outro-e-------------7-5-9-7-10-9-10------------------|
        a-3/5-7-8-10-----------------------------------|
        d----------------------------------------------|
        g----------------------------------------------|
        b----------------------------------------------|
        e----------------------------------------------|

then-e-12h15-12h15-12h15-12h15-12h15-15-14-10-9----------------------|
     a---------------------------------------------------------------|
     d---------------------------------------------------------------|
     g---------------------------------------------------------------|
     b---------------------------------------------------------------|
     e---------------------------------------------------------------|


then-e-12h15-(x5)-17-15-19-17-------------------------|
     a------------------------------------------------|
     d------------------------------------------------|
     g------------------------------------------------|
     b------------------------------------------------|
     e------------------------------------------------|

then w/gtr.1-e------------------------------------------------|
             a------------------------------------------------|
             d-14-12-6-7-9h12-9h12-14-12-6-7-7-6--------------|
             g-----------------------------------7------------|   Repeat 2x
             b------------------------------------------------|
             e------------------------------------------------|


      gtr.2-e--17-15-9-10-12h15-12h15-17-15-9-10-10-9--------------|
            a-----------------------------------------10-----------|
            d------------------------------------------------------|
            g------------------------------------------------------|
            b------------------------------------------------------|
            e------------------------------------------------------|
                                                                    fade out.


      Well, that's it. It's  a great song by a great band. If it's hard to understand, 
forgive me-it's my first tab!  I got the rhythm chords off of starfields website-check it 
God bless.






Like us on Facebook