Hand That Holds The World Tab - Starfield






The hand that holds the world by Starfield from their second cd "Beauty in the Broken"

Key of B

Intro  (Electric gtr)

E|---------------------|
B|---------------------|
G|-4-4~-4-4~-3-3~-1----|
D|-4----6----4----2----|
A|-2----6----4----2----|
E|-x----4----2----0----|

continues....

E|-6h7-6h7-6----------6h7-6h7-6-----6h7-6h7-6-------------------|
B|-----------9-7---------------9~-------------9-7---------------|
G|----------------8~------------------------------8----6--6-----|
D|--------------------------------------------------99---9--8---|
A|------------------------------------------------------------9-|
E|--------------------------------------------------------------|

Verse 1 (2nd capo acoustic gtr)

A2                      F#m
No Greater Joy, Is there than this

E                                               D
To know for what, were meant to live

A2                          F#m
To hold your hand, and touch your face

E                           D
to find ourselves in loves embrace

Chorus (play 2nd part of intro for electric part) (but the part where it 
                                 D      
ends on D: e.g ...holds the world..  play on the G string ..9 and 8) 
here..
G|--99--88--9-8--| X2 it plays twice i think in chorus..

A2
I want to stand before the king
F#m
join in the song that heaven sings
E                                                      D
I want to hold the hand that holds the world
A2
I want to know the mystery

F#m
Reach out and touch the majesty

E                                                     D
I want to hold the hand that holds the world

Verse 2
A2                       F#m
No greater love, Could be bestowed

E                                            D
that you would name us as your own

A2                             F#m
Your daughters sing, Yours sons rejoice

E                           D
They gather here before your throne

Bridge

F#m           E
You are, You are
D
The author of creation
F#m      E                    D
We are, the children of your heart
F#m     E
Your are, You are
D
The light of all the heavens

F#m    E                     D
We rise to worship all your are.








Like us on Facebook