Down The Dustpipe Tab - Status Quo






Down The Dustpipe
Status Quo
Riffs 2003
quorockergreg@hotmail.co.uk    PLEASE E-MAIL ME FOR ANY REQUESTS.

I'm quite proud of this tab.  It helps to put a capo on the 3rd fret.


Harmonica Intro Tabbed For Guitar.  (/=Slide down to the nut)
  G                    *
E|---10-10/----10-10/----10-10/--8----8------|
B|-8-8--8/---8-8--8/---8-8--10/----11---11-8-|
G|-------------------------------------------|Then repeat from '*'
D|-------------------------------------------|
A|-------------------------------------------|
E|-------------------------------------------|


Intro Guitar
   G
E|---------------------------------------------------------------------|
B|---------------------------------------------------------------------|
G|---------------------------------------------------------------------|
D|---------------------------------------------------------------------|
A|--------3--4--5--3-------------------3--4--5--3----------------------|
E|--3--7--------------6--3-------3--7--------------6--3----------------|

G
Headin' down that crowded turnpike

signpost pointin' west

C
Turned into the lonely dustpipe

         G
hope my pickup can stand the test

                      D7
but I'm doing alright  now

                         C        D7
Rollin' down the dustpipe  now


G
Rollin' down the dustpipe now

Got a ten dollar bill in my jeans

C
Ain't no room for a kosher cowboy

      G
In a town like New Orleans

                     D7
But I'm doin' alright now

                         C       D7
Rollin' down the dustpipe   now


G
I didn't make it in the city

But that's just the way it goes

C
There's a lot of lunatic crazy ghostmen

 G
Baby don't like the shape of my nose

                     D7
But I'm doin' alright   now

                         C       D7
Headin' down the dustpipe  now

G
Rollin' down the dustpipe now

Got a ten dollar bill in my jeans

C
Ain't no room for a kosher cowboy

      G
In a town like New Orleans

                     D7
But I'm doin' alright   now

                         C       D7
Rollin' down the dustpipe   now


G#
Rollin' down the dustpipe now

Got a ten dollar bill in my jeans

C#
Ain't no room for a kosher cowboy

      G#
In a town like New Orleans

                     D#7
But I'm doin' alright   now

                         C#       D#7
Rollin' down the dustpipe   now

ĂŽnscrie-te la newsletter


Like us on Facebook