Rollin Home (ver2) Tab - Status Quo






Rollin' Home
Status Quo
In The Army 1986
Greg Harper      quorockergreg@hotmail.co.uk

Here is Rhino's bass part.

Intro
G|---------------------------------------------------------------------|
D|---------------------------------------------------------------------|
A|-7-7----------------------------------7-7-7-7-7-7-7-7-7-7-7-7-7-7-7-7|
E|------7-7-7-7-7-7-7-7-7-7-7-7-7-7-7-7--------------------------------|

G|------------------------------------------------|
D|------------------------------------------------|
A|-9-9-9-9-9-9-9-9--------------------------------|
E|-----------------7-7-7-7-7-7-7-7-7-7-7-7-7-7-7-7|

Verse 
G|----------------------------------------------------------------------|
D|----------------------------------------------------------------------|
A|---------------------------------7-7-7-7-7-7-7-7-7-7-7-7-7-7-7-7------|
E|-7-7-7-7-7-7-7-7-7-7-7-7-7-7-7-7---------------------------------7-7-7|

G|-----------------------------------------------|
D|-----------------------------------------------|
A|---------------------------9-9-9-9-9-9-9-9--7-7|x2
E|-7-7-7-7-7-7-7-7-7-7-7-7-7---------------------|

Fill
G|----------------------------------------|
D|----------------------------------------|
A|-7-7-----------------9-9-9-9-9-9-9-9----|
E|-----7-7-7-7-7-7-7-7-----------------7-7|













ĂŽnscrie-te la newsletter


Like us on Facebook