Twenty Wild Horses Intro Tab - Status Quo






Twenty Wild Horses
Status Quo
Under The Influence 1999
Sam Lennon Singleton   sam-lennon-singleton@hotmail.co.uk

Rick: Capo 2nd Fret
Francis: Standard

Rick:
  C# 
E|-2-2-2-2-2-2-2-0-0-0-2-2-2-|
B|-0-0-0-0-0-0-0-0-0-0-0-0-0-|
G|-4-4-4-4-4-4-4-4-4-4-4-4-4-|
D|-4-4-4-4-4-4-4-4-4-4-4-4-4-|
A|---------------------------|
E|---------------------------|And So On


Francis:
  C#                                                 F#
E|------------------------------------------------|
B|-----6-9-6--------6-7-6--------6-9-6-------6-7~-|
G|-6-8-------8--6-8-------8--6-8-------8-6-8------|
D|------------------------------------------------|
A|------------------------------------------------|
E|------------------------------------------------|And So On

ĂŽnscrie-te la newsletter


Like us on Facebook