Born To Be Wild (ver2) Tab - Steppenwolf




Band : STEPPENWOLF
Song : Born to be Wild
Tabbed By : Scot-Guitarist

|---------------------------------------|
|---------------------------------------|
|-9---x-x--9---x--9---x-9---------------|
|-9---x-x--9---x--9---x-9---10p9--12p9--|
|-7---x-x--7---x--7---x-7---7-----7-----|
|---------------------------------------|



|---------------------------------------|
|---------9---9-------------------------|
|---------9---9-------------------------|
|---------9---9--10p9--12p9-------------|
|---------7---7--7-----7----------------|
|-0-0-0-0-------------------------------|


  A5          D5           E5        A5         E5        D5
|--------------------------------|--------------------------------|
|--------------------------------|--------------------------------|
|-------------7------------9-----|--------------9---------7-------|
|-7-----------7------------9-----|---7----------9---------7-------|
|-7-----------5------------7-----|---7----------7---------5-------|
|-5------------------------------|---5----------------------------|
I forget the lyrics here, and actually there is a lead fill over the
D5 and E5 chords.


|-----------------------------------------------------------------|
|-----------------------------------------------------------------|
|-----------------------------------------------------------------|
|-2--------------5-----------------7--------------5-----------2---|
|-2--------------5-----------------7--------------5-----------2---|
|-0--------------3-----------------5--------------3-----------0---|
  Like a true... We were born...   I could fly... Never wanna die


|---------------------------------------|
|-9----9--7--5----7---------------------|
|-9----9--7--6----7---------------------|
|-9----9--7--7----7---------------------|
|-7----7--------------------------------|
|---------------------------------------|
  Born to be wi - ild
ĂŽnscrie-te la newsletter


Join the ranks ! LIKE us on Facebook