Born To Be Wild (ver3) Bass Tab - Steppenwolf




Verse

G|-----------------|-----------------|
D|-----------------|-----------------|
A|-----------------|-------3-4-------|
E|-0-0-0-0-0-0-0-0-|-0-0-0-----------|


Bridge

G|-----------------|
D|-----------------|
A|---0-------------|
E|-3---0-----------|

Pre Chourus

G|----------------|-----------------|----------------|----------------|
D|----------------|-----------------|----------------|----------------|
A|----------------|-----------------|-0-0-0-0--------|----------------|
E|0-0-0-0-0-0-0-0-|-3-3-3-3-3-3-3-3-|---------3-3-3-3|-0-0-0-0-0-0-0-0|

Chourus

G|------|--------|
D|------|0~------|
A|------|--------|
E|-0~---|--------|


    ~ =Leave to 2 ring

Order...

Verse x8

Bridge x4

Verse x4

Bridge x4

Pre Chorus x1

Chorus x2

Do that 2 times through i think...

End on
E|--0~----


Cheers, Erol
ĂŽnscrie-te la newsletter


Join the ranks ! LIKE us on Facebook