Dont Step On The Grass Sam Intro Tab - Steppenwolf




Don't Step On the Grass, Sam
-----------------------------
Artist: Steppenwolf
Album: Steppenwolf the Second
-----------------------------

Here's the main guitar riff that is repeated throughout the song. If you have any other 
to the song figured out, please share!

Main Guitar Riff:
e|-------------------------------------|
b|-------------------------------------|
g|----------7~-9~----------------------|
d|------5-6--------------------5--7-7--|
a|--5-7---------------5-5-5h7-----7-7--|
e|----------------5h7-------------5-5--|

Listen to the recording to figure it out, its a really simple but really fun riff to play!
ĂŽnscrie-te la newsletter


Join the ranks ! LIKE us on Facebook