Girl Tab - Stereophonics






-------------------------------------------------------------------------------
     Girl - Streophonics
-------------------------------------------------------------------------------
Tabbed by:Eduardo140590


Tuning: Standard

e|---------------------------------------------------------------------------|
B|----------------------------------------------------------6666666666666666-|
G|----------------------------------------------------------6666666666666666-|
D|XX-33--6-88--XX--88--6--33---XX-33--6--88--XX--88--6--33-6666666666666666-|
A|XX-33--6--88--XX--88--6--33---XX-33--6--88--XX--88--6--33-4444444444444444-|
E|XX-11--4--66--XX--66--4--11---XX-11--4--66--XX--66--4--11------------------|

e|---------------------------------------------------------------------------|
B|----------------------------6666666666666666-------------------------------|
G|----------------------------6666666666666666-------------------------------|
D|XX-33--6--88--XX--88--6--33-6666666666666666-------------------------------|
A|XX-33--6--88--XX--88--6--33-4444444444444444-------------------------------|
E|XX-11--4--66--XX--66--4--11------------------------------------------------|

e|---------------------------------------------------------------------------|
B|----------------------------6666666666666666-------------------------------|
G|----------------------------6666666666666666-------------------------------|
D|XX-33--6--88--XX--88--6--33-6666666666666666-------------------------------|
A|XX-33--6--88--XX--88--6--33-4444444444444444-------------------------------|
E|XX-11--4--66--XX--66--4--11------------------------------------------------|

e|---------------------------------------------------------------------------|
B|----------------------------6666666666666666-------------------------------|
G|----------------------------6666666666666666-------------------------------|
D|XX-33--6--88--XX--88--6--33-6666666666666666-------------------------------|
A|XX-33--6--88--XX--88--6--33-4444444444444444-------------------------------|
E|XX-11--4--66--XX--66--4--11------------------------------------------------|

e|---------------------------------------------------------------------------|
B|---------------------------------------------------------------------------|
G|---------------------------------------------------------------------------|
D|33--6--8---8---6-8-6-8-6-3-6----33--6--8---8---6-8-6-8-6-3-6---------------|
A|33--6--8---8---6-8-6-8-6-3-6----33--6--8---8---6-8-6-8-6-3-6---------------|
E|11--4--6--6--4-6-4-6-4-1-4----11--4--6---6---4-6-4-6-4-1-4---------------|

e|---------------------------------------------------------------------------|
B|-------------------------------------------------------------6666666666666-|
G|-------------------------------------------------------------6666666666666-|
D|33--6--8---8---6-8-6-8-6-3-6----33--6--8---8---6-8-6-8-6-3-6-6666666666666-|
A|33--6--8---8---6-8-6-8-6-3-6----33--6--8---8---6-8-6-8-6-3-6-4444444444444-|
E|11--4--6--6--4-6-4-6-4-1-4----11--4--6---6---4-6-4-6-4-1-4---------------|

e|---------------------------------------------------------------------------|
B|----------------------------------------------------------6666666666666666-|
G|----------------------------------------------------------6666666666666666-|
D|XX-33--6-88--XX--88--6--33---XX-33--6--88--XX--88--6--33-6666666666666666-|
A|XX-33--6--88--XX--88--6--33---XX-33--6--88--XX--88--6--33-4444444444444444-|
E|XX-11--4--66--XX--66--4--11---XX-11--4--66--XX--66--4--11------------------|

e|---------------------------------------------------------------------------|
B|----------------------------6666666666666666-------------------------------|
G|----------------------------6666666666666666-------------------------------|
D|XX-33--6--88--XX--88--6--33-6666666666666666-------------------------------|
A|XX-33--6--88--XX--88--6--33-4444444444444444-------------------------------|
E|XX-11--4--66--XX--66--4--11------------------------------------------------|

e|---------------------------------------------------------------------------|
B|----------------------------6666666666666666-------------------------------|
G|----------------------------6666666666666666-------------------------------|
D|XX-33--6--88--XX--88--6--33-6666666666666666-------------------------------|
A|XX-33--6--88--XX--88--6--33-4444444444444444-------------------------------|
E|XX-11--4--66--XX--66--4--11------------------------------------------------|

e|---------------------------------------------------------------------------|
B|----------------------------6666666666666666-------------------------------|
G|----------------------------6666666666666666-------------------------------|
D|XX-33--6--88--XX--88--6--33-6666666666666666-------------------------------|
A|XX-33--6--88--XX--88--6--33-4444444444444444-------------------------------|
E|XX-11--4--66--XX--66--4--11------------------------------------------------|

e|---------------------------------------------------------------------------|
B|---------------------------------------------------------------------------|
G|---------------------------------------------------------------------------|
D|33--6--8---8---6-8-6-8-6-3-6----33--6--8---8---6-8-6-8-6-3-6---------------|
A|33--6--8---8---6-8-6-8-6-3-6----33--6--8---8---6-8-6-8-6-3-6---------------|
E|11--4--6--6--4-6-4-6-4-1-4----11--4--6---6---4-6-4-6-4-1-4---------------|

e|---------------------------------------------------------------------------|
B|-------------------------------------------------------------6666666666666-|
G|-------------------------------------------------------------6666666666666-|
D|33--6--8---8---6-8-6-8-6-3-6----33--6--8---8---6-8-6-8-6-3-6-6666666666666-|
A|33--6--8---8---6-8-6-8-6-3-6----33--6--8---8---6-8-6-8-6-3-6-4444444444444-|
E|11--4--6--6--4-6-4-6-4-1-4----11--4--6---6---4-6-4-6-4-1-4---------------|

e|---------------------------------------------------------------------------|
B|---------------------------------------------------------------------------|
G|---------------------------------------------------------------------------|
D|XX-33--6-88--XX--88--6--33---XX-33--6--88--XX--88--6--33----3-------------|
A|XX-33--6--88--XX--88--6--33---XX-33--6--88--XX--88--6--33----3-------------|
E|XX-11--4--66--XX--66--4--11---XX-11--4--66--XX--66--4--11----1-------------|






Like us on Facebook