My Friends Tab - Stereophonics






Stereophonics - My Friends

tabbed by soupdragon

Verse

E|----------------------------------------------------------------------|
B|----------------------------------------------------------------------|
G|----------------------------------------------------------------------|
D|-7------5-----0-----7-------------------------------------------------|
A|-7-X16--5-X16-0-X16-7-X16---------------------------------------------|
E|-5------3-----------5-------------------------------------------------|

Chorus

E|----------------------------------------------------------------------|
B|----------------------------------------------------------------------|
G|----------------------------------------------------------------------|
D|-12----15----7----4---------------------------------------------------|
A|-12-X8-15-X8-7-X8-4-X8------------------------------------------------|
E|-10----13----5----2---------------------------------------------------|X2


E|----------------------------------------------------------------------|
B|----------------------------------------------------------------------|
G|----------------------------------------------------------------------|
D|-12----15----7----4----5----------------------------------------------|
A|-12-X8-15-X8-7-X8-4-X8-5-X16------------------------------------------|
E|-10----13----5----2----3----------------------------------------------|

Interlude

E|----------------------------------------------------------------------|
B|----------------------------------------------------------------------|
G|----------------------------------------------------------------------|
D|--7-----5-----4-----0-------------------------------------------------|
A|--7-X16-5-X16-4-X16-0-X16---------------------------------------------|
E|--5-----3-----2-------------------------------------------------------|X2

-soupdragon






Like us on Facebook