My Own Worst Enemy Tab - Stereophonics






My Own Worst Enemy-Stereophonics

From A Decade In The Sun

Intro

e---------|
B---------|
G---------|
D-0~~~~~--|
A-x-------|
E-3gb~~~--| x1

Guitar 1

   G       D/F#    F       E
e-3-3--x--x-x--x--1-1--x--0-0--|
B-3-3--x--3-3--x--1-1--x--0-0--|
G-0-0--x--2-2--x--2-2--x--1-1--|
D-0-0--x--0-0--x--3-3--x--2-2--|
A-x-x--x--x-x--x--3-3--x--2-2--|
E-3-3--x--2-2--x--1-1--x--0-0--| x2

Guitar 2

I'm Pretty Sure Guitar 2 Does This All Through The Song

Distortion + E-bow

e--------------------------------------------|
B--------------------------------------------|
G----------------------19~~~~~~~~~~~~~~~~~~--|
D-12~~~~~~~~~~~~~~~~~~-----------------------|
A--------------------------------------------|
E--------------------------------------------|

The Second Time Guitar 1 Plays The Above Guitar 3 Enters And Plays;

Guitar 3

e-----------------------------------|
B-------------------------------9---|
G----3br------2br------2br------9v--|
D-----------------------------------|
A-----------------------------------|
E-----------------------------------|

Verse 1

Guitar 1 + Guitar 3

   G       D/F#    F       E
e-3-3--x--x-x--x--1-1--x--0-0--|
B-3-3--x--3-3--x--1-1--x--0-0--|
G-0-0--x--2-2--x--2-2--x--1-1--|
D-0-0--x--0-0--x--3-3--x--2-2--|
A-x-x--x--x-x--x--3-3--x--2-2--|
E-3-3--x--2-2--x--1-1--x--0-0--| x2

e-3-3-3-3-3-3--0-0-0-0-0-0--1-1-1-1-1-1--0-0-0-0-0-0--|
B-3-3-3-3-3-3--3-3-3-3-3-3--1-1-1-1-1-1--0-0-0-0-0-0--|
G-0-0-0-0-0-0--2-2-2-2-2-2--2-2-2-2-2-2--1-1-1-1-1-1--|
D-0-0-0-0-0-0--0-0-0-0-0-0--3-3-3-3-3-3--2-2-2-2-2-2--|
A-x-x-x-x-x-x--x-x-x-x-x-x--3-3-3-3-3-3--2-2-2-2-2-2--|
E-3-3-3-3-3-3--2-2-2-2-2-2--1-1-1-1-1-1--0-0-0-0-0-0--| x2


Guitar 2

Distortion + E-bow

e--------------------------------------------|
B--------------------------------------------|
G----------------------19~~~~~~~~~~~~~~~~~~--|
D-12~~~~~~~~~~~~~~~~~~-----------------------|
A--------------------------------------------|
E--------------------------------------------|

Pre-Chorus

e-x-x-x-x-x-x-x-x-x--x-x-x-x-x-x-x-x-x-x--|
B-8-8-8-8-8-8-8-8-8--5-5-5-5-5-5-5-5-5-5--|
G-8-8-8-8-8-8-8-8-8--5-5-5-5-5-5-5-5-5-5--|
D-8-8-8-8-8-8-8-8-8--5-5-5-5-5-5-5-5-5-5--|
A-6-6-6-6-6-6-6-6-6--3-3-3-3-3-3-3-3-3-3--|
E-x-x-x-x-x-x-x-x-x--x-x-x-x-x-x-x-x-x-x--| x1

Chorus

Guitar 1 + Guitar 3

e-3-3-3-3-3-3--0-0-0-0-0-0--1-1-1-1-1-1--0-0-0-0-0-0--|
B-3-3-3-3-3-3--3-3-3-3-3-3--1-1-1-1-1-1--0-0-0-0-0-0--|
G-0-0-0-0-0-0--2-2-2-2-2-2--2-2-2-2-2-2--1-1-1-1-1-1--|
D-0-0-0-0-0-0--0-0-0-0-0-0--3-3-3-3-3-3--2-2-2-2-2-2--|
A-x-x-x-x-x-x--x-x-x-x-x-x--3-3-3-3-3-3--2-2-2-2-2-2--|
E-3-3-3-3-3-3--2-2-2-2-2-2--1-1-1-1-1-1--0-0-0-0-0-0--| x3


e-x-x-x-x-x-x-x-x-x--x-x-x-x-x-x-x-x-x-x--|
B-8-8-8-8-8-8-8-8-8--5-5-5-5-5-5-5-5-5-5--|
G-8-8-8-8-8-8-8-8-8--5-5-5-5-5-5-5-5-5-5--|
D-8-8-8-8-8-8-8-8-8--5-5-5-5-5-5-5-5-5-5--|
A-6-6-6-6-6-6-6-6-6--3-3-3-3-3-3-3-3-3-3--|
E-x-x-x-x-x-x-x-x-x--x-x-x-x-x-x-x-x-x-x--| x1


Guitar 2

Distortion + E-bow

e--------------------------------------------|
B--------------------------------------------|
G----------------------19~~~~~~~~~~~~~~~~~~--|
D-12~~~~~~~~~~~~~~~~~~-----------------------|
A--------------------------------------------|
E--------------------------------------------|

Post-Chorus
   G       D/F#    F       E
e-3-3--x--x-x--x--1-1--x--0-0--|
B-3-3--x--3-3--x--1-1--x--0-0--|
G-0-0--x--2-2--x--2-2--x--1-1--|
D-0-0--x--0-0--x--3-3--x--2-2--|
A-x-x--x--x-x--x--3-3--x--2-2--|
E-3-3--x--2-2--x--1-1--x--0-0--| x1

Guitar 3

e-----------------------------------|
B-------------------------------9---|
G----3br------2br------2br------9v--|
D-----------------------------------|
A-----------------------------------|
E-----------------------------------| x1


Guitar 2

Distortion + E-bow

e--------------------------------------------|
B--------------------------------------------|
G----------------------19~~~~~~~~~~~~~~~~~~--|
D-12~~~~~~~~~~~~~~~~~~-----------------------|
A--------------------------------------------|
E--------------------------------------------|

Verse 2


   G       D/F#    F       E
e-3-3--x--x-x--x--1-1--x--0-0--|
B-3-3--x--3-3--x--1-1--x--0-0--|
G-0-0--x--2-2--x--2-2--x--1-1--|
D-0-0--x--0-0--x--3-3--x--2-2--|
A-x-x--x--x-x--x--3-3--x--2-2--|
E-3-3--x--2-2--x--1-1--x--0-0--| x2

e-3-3-3-3-3-3--0-0-0-0-0-0--1-1-1-1-1-1--0-0-0-0-0-0--|
B-3-3-3-3-3-3--3-3-3-3-3-3--1-1-1-1-1-1--0-0-0-0-0-0--|
G-0-0-0-0-0-0--2-2-2-2-2-2--2-2-2-2-2-2--1-1-1-1-1-1--|
D-0-0-0-0-0-0--0-0-0-0-0-0--3-3-3-3-3-3--2-2-2-2-2-2--|
A-x-x-x-x-x-x--x-x-x-x-x-x--3-3-3-3-3-3--2-2-2-2-2-2--|
E-3-3-3-3-3-3--2-2-2-2-2-2--1-1-1-1-1-1--0-0-0-0-0-0--| x2

Pre-Chorus

e-x-x-x-x-x-x-x-x-x--x-x-x-x-x-x-x-x-x-x--|
B-8-8-8-8-8-8-8-8-8--5-5-5-5-5-5-5-5-5-5--|
G-8-8-8-8-8-8-8-8-8--5-5-5-5-5-5-5-5-5-5--|
D-8-8-8-8-8-8-8-8-8--5-5-5-5-5-5-5-5-5-5--|
A-6-6-6-6-6-6-6-6-6--3-3-3-3-3-3-3-3-3-3--|
E-x-x-x-x-x-x-x-x-x--x-x-x-x-x-x-x-x-x-x--| x1

Chorus

e-3-3-3-3-3-3--0-0-0-0-0-0--1-1-1-1-1-1--0-0-0-0-0-0--|
B-3-3-3-3-3-3--3-3-3-3-3-3--1-1-1-1-1-1--0-0-0-0-0-0--|
G-0-0-0-0-0-0--2-2-2-2-2-2--2-2-2-2-2-2--1-1-1-1-1-1--|
D-0-0-0-0-0-0--0-0-0-0-0-0--3-3-3-3-3-3--2-2-2-2-2-2--|
A-x-x-x-x-x-x--x-x-x-x-x-x--3-3-3-3-3-3--2-2-2-2-2-2--|
E-3-3-3-3-3-3--2-2-2-2-2-2--1-1-1-1-1-1--0-0-0-0-0-0--| x3


e-x-x-x-x-x-x-x-x-x--x-x-x-x-x-x-x-x-x-x--|
B-8-8-8-8-8-8-8-8-8--5-5-5-5-5-5-5-5-5-5--|
G-8-8-8-8-8-8-8-8-8--5-5-5-5-5-5-5-5-5-5--|
D-8-8-8-8-8-8-8-8-8--5-5-5-5-5-5-5-5-5-5--|
A-6-6-6-6-6-6-6-6-6--3-3-3-3-3-3-3-3-3-3--|
E-x-x-x-x-x-x-x-x-x--x-x-x-x-x-x-x-x-x-x--| x1

Bridge

e--------------------------------|
B--------------------------------|
G--------------------------------|
D-5-5--x--7-7--x--8-8--x--10-10--|
A-5-5--x--7-7--x--8-8--x--10-10--|
E-3-3--x--5-5--x--6-6--x--8--8---| x2

Solo

Guitar 1

e-3-3-3-3-3-3--0-0-0-0-0-0--1-1-1-1-1-1--0-0-0-0-0-0--|
B-3-3-3-3-3-3--3-3-3-3-3-3--1-1-1-1-1-1--0-0-0-0-0-0--|
G-0-0-0-0-0-0--2-2-2-2-2-2--2-2-2-2-2-2--1-1-1-1-1-1--|
D-0-0-0-0-0-0--0-0-0-0-0-0--3-3-3-3-3-3--2-2-2-2-2-2--|
A-x-x-x-x-x-x--x-x-x-x-x-x--3-3-3-3-3-3--2-2-2-2-2-2--|
E-3-3-3-3-3-3--2-2-2-2-2-2--1-1-1-1-1-1--0-0-0-0-0-0--| x2


Guitar 2

Distortion + E-bow

e--------------------------------------------|
B--------------------------------------------|
G----------------------19~~~~~~~~~~~~~~~~~~--|
D-12~~~~~~~~~~~~~~~~~~-----------------------|
A--------------------------------------------|
E--------------------------------------------|

Guitar 3

e----------------------------------------------------|
B------------------------------------------------17--|
G-14-15--14--7--14-15---9v--14-15--14--7--14-15------|
D----------------------------------------------------|
A----------------------------------------------------|
E----------------------------------------------------|

Pre-Chorus

Guitar 1

e-x-x-x-x-x-x-x-x-x--x-x-x-x-x-x-x-x-x-x--|
B-8-8-8-8-8-8-8-8-8--5-5-5-5-5-5-5-5-5-5--|
G-8-8-8-8-8-8-8-8-8--5-5-5-5-5-5-5-5-5-5--|
D-8-8-8-8-8-8-8-8-8--5-5-5-5-5-5-5-5-5-5--|
A-6-6-6-6-6-6-6-6-6--3-3-3-3-3-3-3-3-3-3--|
E-x-x-x-x-x-x-x-x-x--x-x-x-x-x-x-x-x-x-x--| x1

Guitar 2

Distortion + E-bow

e--------------------------------------------|
B--------------------------------------------|
G----------------------19~~~~~~~~~~~~~~~~~~--|
D-12~~~~~~~~~~~~~~~~~~-----------------------|
A--------------------------------------------|
E--------------------------------------------|

Guitar 3

Tremolo Picked

e---------------------------------------|
B-10////////--11/////////--13/////////--|
G---------------------------------------|
D---------------------------------------|
A---------------------------------------|
E---------------------------------------| x2

Chorus

e-3-3-3-3-3-3--0-0-0-0-0-0--1-1-1-1-1-1--0-0-0-0-0-0--|
B-3-3-3-3-3-3--3-3-3-3-3-3--1-1-1-1-1-1--0-0-0-0-0-0--|
G-0-0-0-0-0-0--2-2-2-2-2-2--2-2-2-2-2-2--1-1-1-1-1-1--|
D-0-0-0-0-0-0--0-0-0-0-0-0--3-3-3-3-3-3--2-2-2-2-2-2--|
A-x-x-x-x-x-x--x-x-x-x-x-x--3-3-3-3-3-3--2-2-2-2-2-2--|
E-3-3-3-3-3-3--2-2-2-2-2-2--1-1-1-1-1-1--0-0-0-0-0-0--| x3


e-x-x-x-x-x-x-x-x-x--x-x-x-x-x-x-x-x-x-x--|
B-8-8-8-8-8-8-8-8-8--5-5-5-5-5-5-5-5-5-5--|
G-8-8-8-8-8-8-8-8-8--5-5-5-5-5-5-5-5-5-5--|
D-8-8-8-8-8-8-8-8-8--5-5-5-5-5-5-5-5-5-5--|
A-6-6-6-6-6-6-6-6-6--3-3-3-3-3-3-3-3-3-3--|
E-x-x-x-x-x-x-x-x-x--x-x-x-x-x-x-x-x-x-x--| x1

Outro

Guitar 1

e-3-3-3-3-3-3--0-0-0-0-0-0--1-1-1-1-1-1--0-0-0-0-0-0--|
B-3-3-3-3-3-3--3-3-3-3-3-3--1-1-1-1-1-1--0-0-0-0-0-0--|
G-0-0-0-0-0-0--2-2-2-2-2-2--2-2-2-2-2-2--1-1-1-1-1-1--|
D-0-0-0-0-0-0--0-0-0-0-0-0--3-3-3-3-3-3--2-2-2-2-2-2--|
A-x-x-x-x-x-x--x-x-x-x-x-x--3-3-3-3-3-3--2-2-2-2-2-2--|
E-3-3-3-3-3-3--2-2-2-2-2-2--1-1-1-1-1-1--0-0-0-0-0-0--| x4

Guitar 2

Guitar 2

Distortion + E-bow

e--------------------------------------------|
B--------------------------------------------|
G----------------------19~~~~~~~~~~~~~~~~~~--|
D-12~~~~~~~~~~~~~~~~~~-----------------------|
A--------------------------------------------|
E--------------------------------------------|

Guitar 3

e--------------------------------------------------|
B--------------------------------------------------|
G----------------------------------------------9v--|
D-7v-8v-7v--0v--7v-8v--2v--7v-8v-7v--0v--7v-8v-----|
A--------------------------------------------------|
E--------------------------------------------------|

Guitar 1 + Guitar 3

e-3-3--|
B-3-3--|
G-0-0--|
D-0-0--|
A-x-x--|
E-3-3--|






Like us on Facebook