Nice To Be Out Bass Tab - Stereophonics






Bass enters
0:25


G|-------------------|
D|-------------------|
A|0--5--5-0-55-------|   x4
E|-------------------|

0: 35
G|--------------|
D|--------------| x2
A|--------------|
E|-0--5-5-0-55--|

0:41
G|-------------------|
D|-------------------|
A|0--5--5-0-55-------|   x8
E|-------------------|

1:02
G|--------------|
D|--------------| x2
A|--------------|
E|-0--5-5-0-55--|

1:08
G|-------------------|
D|-------------------|
A|0--5--5-0-55-------|   x8
E|-------------------|

1:29
G|--------------|
D|--------------| x2
A|--------------|
E|-0--5-5-0-55--|

1:34
G|-------------------|
D|-------------------|
A|0--5--5-0-55-------|   x8
E|-------------------|

1:56
G|--------------|
D|--------------| x2
A|--------------|
E|-0--5-5-0-55--|

2:01
G|-------------------|
D|-------------------|
A|0--5--5-0-55-------|   x8
E|-------------------|

2:23
G|--------------|
D|--------------| x2
A|--------------|
E|-0--5-5-0-55--|

2:28
G|-------------------|
D|-------------------|
A|0--5--5-0-55-------|   x8
E|-------------------|


G|-------------------|
D|-------------------|
A|0--5--5-0-55-------|   x4
E|-------------------|    fades away 4th time






Like us on Facebook