Pass The Buck Tab - Stereophonics






Stereophonics - Pass the Buck

Intro/verse
E|----------------------------------------------------------------------|
B|----------------------------------------------------------------------|
G|----777-----555-------------------------------------------------------|
D|-77-777-555-555-55----------------------------------------------------|
A|-77-555-555-333-55----------------------------------------------------|
E|-55-----333-----33----------------------------------------------------|

Chorus part 1
E|----------------------------------------------------------------------|
B|----------------------------------------------------------------------|
G|-------7--------------------------------------------------------------|
D|-7-----7-X16----------------------------------------------------------|
A|-7-X16-5--------------------------------------------------------------|
E|-5--------------------------------------------------------------------|X2

chorus part 2
E|----------------------------------------------------------------------|
B|----------------------------------------------------------------------|
G|----777-----555-------------------------------------------------------|
D|-77-777-555-555-55----------------------------------------------------|
A|-77-555-555-333-55----------------------------------------------------|
E|-55-----333-----33----------------------------------------------------|X2

-soupdragon






Like us on Facebook