Pedalpusher Live Tab - Stereophonics






Pedalpusher-Stereophonics

Written by Kelly Jones

Intro + Verses (Riff 1)
e-------------------------------|
B-------------------------------|
G-14-14-------11-11-11-11-11-11-|
D-14-14-12-12-11-11-11-11-11-11-|
A-12-12-12-12-9--9--9--9--9--9--|
E-------10-10-------------------|

Chorus (Riff 2)

e-------------------------------|
B-------------------------------|
G-------------------------------|
D-11-11-11-11-11-13-13-13-13-13-|
A-11-11-11-11-11-13-13-13-13-13-|
E-9--9--9--9--9--11-11-11-11-11-|

Solo 1

e----------------------------------|
B-12b-12b-12b-10b-10b-10b-8-10-8-6-|
G----------------------------------|
D----------------------------------|
A----------------------------------|
E----------------------------------|
 
Lyrics
Intro

Riff 1

Verse 1
Riff 1
Gotta get it on the scene hun
Riff 1
Voice activate machine
Riff 1
Got your head in a hair cut 
Riff 1
You gotta fill up on dreams

Verse 2

Riff 1
You got your finger on the pulse babe
Riff 1
You got your Rock'N'Roll life
Riff 1
You want a Screwidriver too now 
Riff 1
I hear they're fine and all

Chorus
Riff 2                                     Riff 1
You got it all this side up but you aint got it down

Verse 3

Riff 1
Activate your sweet voice babe 
Riff 1
And let your sweet voice out
Riff 1
Got your head off the choppin block
Riff 1
And get your wigi board out

Verse 4

Riff 1
You got your rubber on your pencil
Riff 1
In case you make a mistake
Riff 1
I hope you got it all down Babe
Riff 1
I Hate To Think Your a Fake

Chorus 
Riff 1                                       Solo 1
You got it all this side up but you aint got it down x2

Solo

e-----------------------------------|
B-12b-12b-12b-10b-10b-10b-8-10-8-6--|
G-----------------------------------|
D-----------------------------------|
A-----------------------------------|
E-----------------------------------| x2

Then

e------------------------------------|
B----------------------------------6-|
G-12b-12b-12b-10b-10b-10b-8-10-8-6---|
D------------------------------------|
A------------------------------------| x4
E------------------------------------|

Chorus

You got it all this side up but you aint got it down push the pedal now x3

You got it all this side up but you aint got it (Music Stops Kelly Whispers)
Push

Outro
Riff x2













Like us on Facebook