Raymonds Shop Tab - Stereophonics






Hey,
This is my first ever TAB on ultimate guitar so i hope its spot on.
The Stereophonics rule. Feedback would be good. Thanks. Gez (gez_lloyd@hotmail.com).


Intro

E------------------------------------------------------------|
B----15-15-15-----13-13-13----12-12-12----13-13-13-13--------|
G------------------------------------------------------------|
D------------------------------------------------------------|
A------------------------------------------------------------|
E------------------------------------------------------------|

E------------------------------------------------------------------|
B----15-15-15-----13-13-13----12-12-12-----------------------------|
G--------------------------------------------------12-12-12-12-----|
D------------------------------------------------------------------|
A------------------------------------------------------------------|
E------------------------------------------------------------------|

E------------------------------------------------------------|
B----15-15-15-----13-13-13----12-12-12----13-13-13-13--------|
G------------------------------------------------------------|
D------------------------------------------------------------|
A------------------------------------------------------------|
E------------------------------------------------------------|

E------------------------------------------------------------------------|
B----12-12-12-----10------12---------------------------------------------|
G----------------------------------------12------------------------------|
D------------------------------------------------------------------------|
A------------------------------------------------------------------------|
E------------------------------------------------------------------------|

Chords for Intro:- G - Bm - E - C (just follow the bass line), Verse and Chorus are 
the same as the intro but when your
coming up to the chorus hold on the D (acts like a link/build into the chorus.

Going down la la la
Going down la la la la la


I used to buy my sweets and candy treats at
Raymond's shop
I used to pass there every
The time I as come to buy a gun and hold up
Raymond's shop
It looks like I will be going away


Going down la la la
Going down la la la la la


It's been two years my minds not clear
I stop at Raymond's shop
It's boarded up he's gone away
The words got out and there's no doubt it came from
Raymond's shop
It looks like our little boys will play


Play away ne ne nay play away


Quiet bit Chords - C - G (repeat 4 times, but on the 4th time use C - and build on D)


Link (played like intro)


its turned about its back on you
Your famous fifteen times by two
You ask around to find the truth
And all the fingers point at you
You're sick and low, my minds made up
you're 2 years down I'm back In luck
I wouldn't save you if you drown
I hope you like you're time gone down

Finish on a:- G






Like us on Facebook