Roll Up And Shine Bass Tab - Stereophonics






Intro/Main Riff

G|---------------------------|
D|---------------------------|
A|---------------------------|
E|-1h3-3---1--3---1--3---1h3-|


Bridge

G|-------------------------------|
D|-------------------------------|
A|-1h3-3-3-3--------1h3-3-3-3----|
E|-----------------------------4-|


Chorus

G|-------------------|
D|-------------------|
A|-1-1-1-1-/-6-6-6-6-|
E|-------------------|


Breakdown

G|---------------------------------|
D|---------------------------------|
A|-1-1-1-1-0-0-0-0-3-3-3-3-3-3-3-3-|
E|---------------------------------|x3


G|-----------------|
D|-----------------|
A|-1-1-1-1-0-0-0-0-|
E|-----------------|

Outro

G|-------------|
D|-------------|
A|1h3-3-3-3----|
E|-------------|



Structure

Intro/Main Riff x12
Bridge    x1
Main Riff x2
Bridge    x1
Main Riff x2
Chorus    x7
Main Riff x10
Bridge    x1
Main Riff x2
Bridge    x1
Main Riff x2
Chorus    x7
Main Riff x2
Breakdown x1
Main Riff x4
Bridge    x1
Main Riff x2
Bridge    x1
Main Riff x2
Chorus    x7
Main Riff x2
Chorus    x7
Main Riff x4
Outro     x1






Like us on Facebook