Soldiers Make Good Targets Bass Tab - Stereophonics






----------------------------------------------------------------------------
           SOLDIERS MAKE GOOD TARGETS - Stereophonics 
----------------------------------------------------------------------------

Tabbed By : lilwelshrocker
e-mail: welsh_boy_2k6@hotmail.co.uk

Tuning:EADG

Verse (come in with drums after intro, the timings vary a bit but not much)
G|------------------------------------------|
D|------------------------------------------|
A|5h7-7777-5-5h7-7777-5-5h7-7777-5----------|
E|---------------------------------6-66666-3|

Pre Chorus
G|---------------------|
D|---------------------|
A|---------------------|
E|553-3-6666666-5-553-3|

Chorus Part 1 
G|----------|
D|----------|
A|5h7-7777-5|
E|----------|

Chorus Part 2 
G|----------|
D|5h7 7777 5|
A|----------|
E|----------|

Chorus Part 3
G|----------|
D|7-7-7-7-77|
A|0-0-0-0-00|
E|----------|
Verse
Pre Chorus
Chorus 

Bridge
G|-------------------|
D|-------------------|
A|5h7-7777-----------|
E|--------6-6666666-3|

Outro
G|------------------------------------------------------------------|
D|-------------------------------------------5h7-7777-5-5h7-7777-5-7|
A|5h7-7777-5-5h7-7777-5-5h7-7777-5-5h7-7777-5----------------------0|
E|------------------------------------------------------------------|

Order Of Play:
Verse x8
Pre Chorus x4
Chorus Part 1 x4
Chorus Part 2 x2
Chorus Part 3 x1
Chorus Part 1 x4
Chorus Part 2 x2
Chorus Part 3 x1
Verse x8
Pre Chorus x4
Chorus Part 1 x4
Chorus Part 2 x2
Chorus Part 3 x1
Chorus Part 1 x4
Chorus Part 2 x2
Chours Part 3 x1
Bridge x8
Chorus Part 1 x4
Chorus Part 2 x2
Chorus Part 3 x1
Chorus Part 1 x4
Chorus Part 2 x2
Chorus Part 3 x1
Chorus Part 1 x4
Chorus Part 2 x2
Chorus Part 3 x1
Outro x1

Enjoy stereophonic lovers. That is as close as i can get this tab so please, rate and comment.






Like us on Facebook