Soldiers Make Good Targets Tab - Stereophonics






Soldiers Make Good Targets-Stereophonics

Intro/Verse

e-------------------------------------------------------------| As Many 
B-------------------------------------------------------------| Times As
G-------------------------------------------------------------| Neccesary.
D-------------------------------------------------------------|
A-5h7-7-7-7p5-5h7-7-7-7p5-5h7-7-7-7p5-------------------------|
E-0-0-0-0-0-0-0-0-0-0-0-0-0-0-0-0-0-0--6-6-6-6-6-6-5-5-5-5-5--|

Pre-Chorus

'You, Shoot,....'
 Guitar 1
e---------------------------------------------------------------|
B---------------------------------------------------------------|
G---------------------------------------------------------------|
D---------------------------------------------------------------|
A-5-5--8-8-8--7-7-7--5-5--8-8-8--7-7-7--5-5--8-8-8--7-7-7--5-5--|
E-3-3--6-6-6--5-5-5--3-3--6-6-6--5-5-5--3-3--6-6-6--5-5-5--3-3--|

Guitar 2
I Think He Uses The Effect Pedal That makes the Guitar Sound Like A Police Siren.
e-------|
B-15br--| As Many Times As Neccesary.
G-------|
D-------|
A-------|
E-------| 

Chorus

e--------------------------------------------------|
B--------------------------------------------------|
G--------------------------------------------------|
D--------------------------------------------------|
A-5h7-7-7-7p5-5h7-7-7-7p5-5h7-7-7-7p5-5h7-7-7-7p5--|
E-0-0-0-0-0-0-0-0-0-0-0-0-0-0-0-0-0-0-0-0-0-0-0-0--|

e-----------------------------------------|
B-----------------------------------------|
G-----------------------------------------|
D-----------------------------------------|
A-----------------------------------------|
E-3h5-5-5-5p3-3h5-5-5-5p3-5b-5b-5b-5b-5b--| x2

Guitar 2

e--------------------------------------------------|
B--------------------------------------------------|
G--------------------------------------------------|
D--------------------------------------------------|
A-5h7-7-7-7p5-5h7-7-7-7p5-5h7-7-7-7p5-5h7-7-7-7p5--|
E-0-0-0-0-0-0-0-0-0-0-0-0-0-0-0-0-0-0-0-0-0-0-0-0--|

e-----------------------------------------|
B-----------------------------------------|
G-----------------------------------------|
D-5h7-7-7-7p5-5h7-7-7-7p5-7b-7b-7b-7b-7b--|
A-----------------------------------------|
E-----------------------------------------| x2

Verse 2

Guitar 1

e-------------------------------------------------------------| As Many 
B-------------------------------------------------------------| Times As
G-------------------------------------------------------------| Neccesary.
D-------------------------------------------------------------|
A-5h7-7-7-7p5-5h7-7-7-7p5-5h7-7-7-7p5-------------------------|
E-0-0-0-0-0-0-0-0-0-0-0-0-0-0-0-0-0-0--6-6-6-6-6-6-5-5-5-5-5--|

Guitar 2

e-x-x-x-x-12-12-12x-x-x-x-12-12-12x-x--|
B-x-x-x-x-12-12-12x-x-x-x-12-12-12x-x--| As Many Times As Neccesary. 
G-x-x-x-x-12-12-12x-x-x-x-12-12-12x-x--|
D-x-x-x-x-12-12-12x-x-x-x-12-12-12x-x--|
A-x-x-x-x-12-12-12x-x-x-x-12-12-12x-x--|
E-x-x-x-x-x-x-x-x-x-x-x-x-x-x-x-x-x-x--|

Pre-Chorus

'You, Shoot,....'
 Guitar 1
e---------------------------------------------------------------|
B---------------------------------------------------------------|
G---------------------------------------------------------------|
D---------------------------------------------------------------|
A-5-5--8-8-8--7-7-7--5-5--8-8-8--7-7-7--5-5--8-8-8--7-7-7--5-5--|
E-3-3--6-6-6--5-5-5--3-3--6-6-6--5-5-5--3-3--6-6-6--5-5-5--3-3--|

Guitar 2
I Think He Uses The Effect Pedal That makes the Guitar Sound Like A Police Siren.
e-----------|
B-----------| As Many Times As Neccesary.
G---14br----|
D-----------|
A-----------|
E-----------| 

Chorus

e--------------------------------------------------|
B--------------------------------------------------|
G--------------------------------------------------|
D--------------------------------------------------|
A-5h7-7-7-7p5-5h7-7-7-7p5-5h7-7-7-7p5-5h7-7-7-7p5--|
E-0-0-0-0-0-0-0-0-0-0-0-0-0-0-0-0-0-0-0-0-0-0-0-0--|

e-----------------------------------------|
B-----------------------------------------|
G-----------------------------------------|
D-----------------------------------------|
A-----------------------------------------|
E-3h5-5-5-5p3-3h5-5-5-5p3-5b-5b-5b-5b-5b--| x2

Guitar 2

e--------------------------------------------------|
B--------------------------------------------------|
G--------------------------------------------------|
D--------------------------------------------------|
A-5h7-7-7-7p5-5h7-7-7-7p5-5h7-7-7-7p5-5h7-7-7-7p5--|
E-0-0-0-0-0-0-0-0-0-0-0-0-0-0-0-0-0-0-0-0-0-0-0-0--|

e-----------------------------------------|
B-----------------------------------------|
G-----------------------------------------|
D-5h7-7-7-7p5-5h7-7-7-7p5-7b-7b-7b-7b-7b--|
A-----------------------------------------|
E-----------------------------------------| x2

Solo

e------------------------------------------------|
B-15b~~~~~----------------------------15b~~~~~~--|
G------------14b~~~~~~~--11b~~~~~~~~-------------|
D------------------------------------------------|
A------------------------------------------------|
E------------------------------------------------|

e----------------------------------------|
B----------------------------------------|
G-------------12----12b------------------|
D-------12h14----14-----14p12------------|
A-12h14-----------------------14p12--10--|
E----------------------------------------| x3

e-------------------------------|
B-------------------------------|
G--------------------14bbbbp12--|
D-------12----12-14-------------|
A-12h14----14-------------------|
E-------------------------------| x1

Chorus

e--------------------------------------------------|
B--------------------------------------------------|
G--------------------------------------------------|
D--------------------------------------------------|
A-5h7-7-7-7p5-5h7-7-7-7p5-5h7-7-7-7p5-5h7-7-7-7p5--|
E-0-0-0-0-0-0-0-0-0-0-0-0-0-0-0-0-0-0-0-0-0-0-0-0--|

e-----------------------------------------|
B-----------------------------------------|
G-----------------------------------------|
D-----------------------------------------|
A-----------------------------------------|
E-3h5-5-5-5p3-3h5-5-5-5p3-5b-5b-5b-5b-5b--| x4

Guitar 2

e--------------------------------------------------|
B--------------------------------------------------|
G--------------------------------------------------|
D--------------------------------------------------|
A-5h7-7-7-7p5-5h7-7-7-7p5-5h7-7-7-7p5-5h7-7-7-7p5--|
E-0-0-0-0-0-0-0-0-0-0-0-0-0-0-0-0-0-0-0-0-0-0-0-0--|

e-----------------------------------------|
B-----------------------------------------|
G-----------------------------------------|
D-5h7-7-7-7p5-5h7-7-7-7p5-7b-7b-7b-7b-7b--|
A-----------------------------------------|
E-----------------------------------------| x4







Like us on Facebook