Stone (ver2) Tab - Stereophonics






Stereophonins - Stone
tabbed by Pete Porter, jr


Intro and Verse:
Guitar 1 (tuning: D-String one whole step down into C;
                  G-String one whole step down into F)

    1 + 2 + 3 + 4 + 1 + 2 + 3 + 4 + 1 + 2 + 3 + 4 + 1 + 2 + 3 + 4 +
e|------------------------------------------------------------------|
B|------------------------------------------------------------------|
G|------0-------0-------0-------0-------0-------0-------0-------0---|
D|----0-------0-------0-------0-------0-------0-------0-------0-----|
A|--1-------1-------3-------3-------5-------5-------5-------5-------|
E|------------------------------------------------------------------|


Intro and Verse:
Guitar 2 (General tuning)

    1 + 2 + 3 + 4 + 1 + 2 + 3 + 4 + 1 + 2 + 3 + 4 + 1 + 2 + 3 + 4 +

e|--10--8-10----8---10--8-10----8---10--8-10----8---10--8-10----8---|
B|------------------------------------------------------------------|
G|------------------------------------------------------------------|
D|------------------------------------------------------------------|
A|------------------------------------------------------------------|
E|------------------------------------------------------------------|


Chorus:
Guitar 1


    1 + 2 + 3 + 4 + 1 + 2 + 3 + 4 + 1 + 2 + 3 + 4 + 1 + 2 + 3 + 4 +
e|------------------------------------------------------------------|
B|------------------------------------------------------------------|
G|------0-------0-------0-------0-------0-------0-------0-------0---|
D|----0-------0-------0-------0-------0-------0-------0-------0-----|
A|----------------------------------5-------5-------5-------5-------|
E|--1-------1-------1-------1---------------------------------------|

    1 + 2 + 3 + 4 + 1 + 2 + 3 + 4 + 1 + 2 + 3 + 4 + 1 + 2 + 3 + 4 +
e-------------------------------------------------------------------|
B-------------------------------------------------------------------|
G-------0-------0-------0-------0-------0-------0-------0-------0---|
D-----0-------0-------0-------0-------0-------0-------0-------0-----|
A---1-------1-------3-------3-------5-------5-------5-------5-------|
E-------------------------------------------------------------------|


Chorus:
Guitar 2

    1 + 2 + 3 + 4 + 1 + 2 + 3 + 4 + 1 + 2 + 3 + 4 + 1 + 2 + 3 + 4 +

e|--8-----5---------8-----5---------8-----5---------8-----5---------|
B|--------------6---------------6---------------6---------------6---|
G|------------------------------------------------------------------|
D|------------------------------------------------------------------|
A|------------------------------------------------------------------|
E|------------------------------------------------------------------|

Chorus:
Guitar 3 (general tuning)

   1 + 2 + 3 + 4 + 1 + 2 + 3 + 4 + 1 + 2 + 3 + 4 + 1 + 2 + 3 + 4 +
  [F]                            [Dm]

   1 + 2 + 3 + 4 + 1 + 2 + 3 + 4 + 1 + 2 + 3 + 4 + 1 + 2 + 3 + 4 +
  [Bb]            [C]            [Dm]

I think that's it, there are more guitars in the chorus, but these are the most 
I guess. Hope you enjoy it.






Like us on Facebook