Stone Tab - Stereophonics






============================================================================
----------------------------------------------------------------------------
     Stone - Stereophonics
----------------------------------------------------------------------------
Tabbed by: Dark_syclone
Email: martin_0434@hotmail.com

This is one of my favourite songs by sterephonics, probably the best song
on their new album. The finger movements on the fretboard are simple but the actual 
picking can be harder due to having to avoid one of the strings, but once you've practiced a 
times it sounds ace :D

Tuning: Standard

Intro bit:
Guitar 1
e|----------------------------------------------------------------------|- |
B|---3~-----3-------3-------3-------3-------3-------3-------3-------3---|-- |
G|--------2---2---2---2---2---2---2---2---2---2---2---2---2---2---2---2-|-- |
D|--------------------------------------0-------0-------0-------0---------- | x2
A|------1-------1-------3-------3---------------------------------------|-- |
E|------------------------------------------------------------------------- |


Verse:   (exactly the same)
Guitar 1
e|----------------------------------------------------------------------|- |
B|-----3-------3-------3-------3-------3-------3-------3-------3--------|-- |
G|---2---2---2---2---2---2---2---2---2---2---2---2---2---2---2---2------|-- |
D|---------------------------------0-------0-------0-------0--------------- | x4
A|--1------1-------3-------3--------------------------------------------|-- |
E|------------------------------------------------------------------------- |

Pre-Chorus:
guitar 2 (comes in and plays over the top as well as guitar 1):
e|----------------------------------------------------------------------|- |
B|----------------------------------------------------------------------|-- |
G|--3--------------5---------------7------------------------------------|-- |
D|--3--------------5---------------7--------------------------------------- | x4
A|--1--------------3---------------5------------------------------------|-- |
E|------------------------------------------------------------------------- |


While guitar 1 still plays:
Guitar 1
e|----------------------------------------------------------------------|- |
B|-----3-------3-------3-------3-------3-------3-------3-------3--------|-- |
G|---2---2---2---2---2---2---2---2---2---2---2---2---2---2---2---2------|-- |
D|---------------------------------0-------0-------0-------0--------------- | x4
A|--1------1-------3-------3--------------------------------------------|-- |
E|------------------------------------------------------------------------- |


Chorus:
Guitar 1
e|----8--5----8--5----8--5----8--5--------------------------------------|- |
B|---------6-------6-------6-------6------------------------------------|-- |
G|----------------------------------------------------------------------|-- |
D|------------------------------------------------------------------------- | x4
A|----------------------------------------------------------------------|-- |
E|------------------------------------------------------------------------- |


Guitar 2
e|------|     |-----|     |-----|    |-----|    |-----|
B|------|     |-----|     |-----|    |-----|    |-----|
G|--14--| x16 |--7--| x16 |--3--| x8 |--5--| x8 |--5--| x16
D|--14--|     |--7--|     |--3--|    |--5--|    |--5--|
A|--12--|     |--5--|     |--1--|    |--3--|    |--7--|
E|------|     |-----|     |-----|    |-----|    |-----|

Then its just the same again -

Verse
Pre-Chorus
Chorus

Outro:
Guitar 1
e|----------------------------------------------------------------------|- |
B|-----3-------3-------3-------3-------3-------3-------3-------3--------|-- |
G|---2---2---2---2---2---2---2---2---2---2---2---2---2---2---2---2------|-- |
D|---------------------------------0-------0-------0-------0--------------- | x4
A|--1------1-------3-------3--------------------------------------------|-- |
E|------------------------------------------------------------------------- |
                          (Fades Out)


| /  slide up
|   slide down
| h  hammer-on
| p  pull-off
| ~  vibrato
| +  harmonic
| x  Mute note

Thanks, any comments or corrections feel completely free to e-mail me at
martin_0434@hotmail.com and i'd be pleased to speak to you =)

============================================================================






Like us on Facebook