Superman Bass Tab - Stereophonics






Tabbed By: Curtis (Rocker4500)
e-mail: Rocker4500@aol.com
Tuning: EADG Standard


Intro *(play the open E string as passing note)
x2
G|--------------------------------------------------------------------------|
D|--------------------------------------------------------------------------|
A|-------------------3-3-3-3-3-3-3-3----------------------------------------|
E|--5-5-5-5-5-5-5-5------------------*0-1-1-1-1-1-1-1-1/9-9~~--9~~----------|


Verse 1

G|--------------------------------------------------------------------------|
D|--------------------------------------------------------------------------|
A|-------------------3-3-3-3-3-3-3-3----------------------------------------|
E|--5-5-5-5-5-5-5-5------------------*0-1-1-1-1-1-1-1-1/9-9~~--9~~----------|
          "You don't know what"   "been like"

repeat this for all of the fist verse.


Chorus

G|--------------------------------------------------------------------------|
D|--------------------------------------------------------------------------|
A|--10-12--10-12--10-12--10-12----------------------------------------------|
E|--------------------------------------------------------------------------|
play this once before vocals come in.

G|--------------------------------------------------------------------------|
D|-----------------------12-10----------------------------------------------|
A|--10-12--10-12--10-12-----------------------------------------------------|
E|--------------------------------------------------------------------------|
"You look like Jesus on an aeroplane"
"Head against the window pane"
"You got opinions but you aint got news"
"You aint got laughs but when it suits you"
"You turn it on like a leeking tap"
"Dripping dropping people drop of a hat"

G|--------------------------------------------------------------------------|
D|--10-----10-----10------10------------------------------------------------|
A|-----12-----12-----12------12---------------------------------------------|
E|--------------------------------------------------------------------------|
"You gotta mouth but you aint got guts"

G|--------------------------------------------------------------------------|
D|--10-12--10-12--10-12--12~~-----------------------------------------------|
A|--------------------------------------------------------------------------|
E|--------------------------------------------------------------------------|
"That drunked mouth you should keep shut"

V2
Same riff as verse 1, but enter with this passing note
G|--------------------------------------------------------------------------|
D|--------------------------------------------------------------------------|
A|--------------------------------------------------------------------------|
E|--0-----------------------------------------------------------------------|

Chorus
As before (different lyrics, not that it really matters)

V3
Same as previous verses

Solo
Chorus notes.

Middle 8 -

G|--------------------------------------------------------------------------|
D|--------------------------------------------------------------------------|
A|--------------------------------------------------------------------------|
E|--8-8-8-8-8-8-8-8-7-7-7-7-7-7-7-7-6-6-6-6-6-6-6-6-5-5-5-5-5-5-5-5---------|
x2


Chorus

End on solo.

G|--------------------------------------------------------------------------|
D|--------------------------------------------------------------------------|
A|--------------------------------------------------------------------------|
E|--------------------------------------------------------------------------|

G|--------------------------------------------------------------------------|
D|--------------------------------------------------------------------------|
A|--------------------------------------------------------------------------|
E|--------------------------------------------------------------------------|

G|--------------------------------------------------------------------------|
D|--------------------------------------------------------------------------|
A|--------------------------------------------------------------------------|
E|--------------------------------------------------------------------------|


| /  slide up
|   slide down
| h  hammer-on
| p  pull-off
| ~  vibrato
| +  harmonic
| x  Mute note
===============================================================================






Like us on Facebook