Vegas Two Times (ver2) Tab - Stereophonics






Stereophonics - VEGAS TWO TIMES LIVE
 
By Richard Pugh
 
Credits to all involved in writing, producing and whatever this song! It rocks!

Unlike my other tabs this one does have timing, so i'm afraid you'll have to listen to the song to get it.
 
KEY:
x      = Mute
^      = Up stroke
15b17  = Bend the fret before to the fret after
~      = Hold on/Vibrato
 
Intro/Chorus
 
|-------------------------------------|------------------------------|
|-3---3-3-3-3-3-3-3-3-3-3-3-3---------|------------------------------|
|-2---2-2-2-2-2-2-2-2-2-2-2-2---------|------------------------------|
|-0---0-0-0-0-0-0-0-0-0-0-0-0---------|------------------------------|
|-0---3-0-0-3-0-0-3-0-3-0-3-0---------|-------------------------3---5|
|-------------------------------------|-2-2-2-3-3-3-4-4-4-5-5-5------|  x2
 
|-------------------------------------|------------------------------|
|-3---3-3-3-3-3-3-3-3-3-3-3-3---------|------------------------------|
|-2---2-2-2-2-2-2-2-2-2-2-2-2---------|------------------------------|
|-0---0-0-0-0-0-0-3-0-3-0-3-0---------|------------------------------|
|-0---3-0-0-3-0-0-0-0-0-0-0-0---------|-------------------------3---5|
|-------------------------------------|-2-2-2-3-3-3-4-4-4-5-5-5------|
 
|-------------------------------------|-1-1-1-1---1-1-1-1---11--11--|
|-3---3-3-3-3-3-3-3-3-3-3-3-3---------|-0-0-0-0---0-0-0-0---00--00--|
|-2---2-2-2-2-2-2-2-2-2-2-2-2---------|-0-0-0-0---0-0-0-0---00--00--|
|-0---0-0-0-0-0-0-0-0-0-0-0-0---------|-----------------------------|
|-0---3-0-0-3-0-0-3-0-3-0-3-0---------|-2-2-2-2---2-2-2-2---22--22--|
|-------------------------------------|-3-3-3-3---3-3-3-3---33--33--|
 
 VERSE                        
                                
 1st     2nd     3rd     4th  
                              
|2-------2-------0-------0----| 
|0-------0-------0-------0----| 
|2---------------1-------3----| 
|0-------2-------2-------2----| 
|2---------------2-------2----| 
|----------------0------------| X2, but on the 1st chord second time round bend the note on the g string
up and then down on it's own after playing the chord a few times (listen to the song.

CHORUS
 
VERSE                        
 
CHORUS
 
Middle 8 / Solo 
1st           2nd          3rd     4th
|2------------2------------5-------5----|
|3-----3------1-----3------3-------3----|
|2---2---2-0--2---2---2-0--4-------3----|
|0-0----------0-0----------0-------0----|
|---------------------------------------|
|---------------------------------------|  x2
 
Build Up
 
|----------------------------------------------------------------|
|----------------------------------------------------------------|
|----------------------------------------------------------------|
|----------------------------------------------------------------|
|-5-3-0-5------------------------------------------3---5---------|
|--------------------------2-2-2-3-3-3-4-4-4-5-5-5---------------|
 
|----------------------------------------------------------------|
|----------------------------------------------------------------|
|----------12b13-12-10-------------------------------------------|
|----------------------12~~--------------------------------------|
|-5-3-0-5------------------------------------------3---5---------|
|--------------------------2-2-2-3-3-3-4-4-4-5-5-5---------------|
 
|----------xxxxxxxx----------------------------------------------|
|----------xxxxxxxx----------------------------------------------|
|----------xxxxxxxx----------------------------------------------|
|----------xxxxxxxx----------------------------------------------|
|-5-3-0-5--xxxxxxxx--------------------------------3---5---------|
|----------xxxxxxxx--------2-2-2-3-3-3-4-4-4-5-5-5---------------|
 
|----------------------------------------------------------------|
|----------------------------------------------------------------|
|----------------------------------------------------------------|
|----------------------------------------------------------------|
|-5-3-0-5------------------------------------------3---5---------|
|----------0>15b17r15------2-2-2-3-3-3-4-4-4-5-5-5---------------|
 
|---------------------------------|
|---------------------------------|
|---------------------------------|
|---------------------------------|
|-------------------------3---5-0-|
|2-2-2-3-3-3-4-4-4-5-5-5----------|  x2
 
|----------------------------------|
|----------------------------------|
|----------------------------------|
|----------------------------------|
|-------------------------3---5----|
|-2--0--3--0--4--0--5--0-----------|
 
Chorus 2
 
|-------------------------------------|------------------------------|
|-3---3-3-3-3-3-3-3-3-3-3-3-3---------|------------------------------|
|-2---2-2-2-2-2-2-2-2-2-2-2-2---------|------------------------------|
|-0---0-0-0-0-0-0-0-0-0-0-0-0---------|------------------------------|
|-0---3-0-0-3-0-0-3-0-3-0-3-0---------|-------------------------3---5|
|-------------------------------------|-2-2-2-3-3-3-4-4-4-5-5-5------|  x7
 
|-------------------------------------|-1-1-1-1---1-1-1-1---11--11--|
|-3---3-3-3-3-3-3-3-3-3-3-3-3---------|-0-0-0-0---0-0-0-0---00--00--|
|-2---2-2-2-2-2-2-2-2-2-2-2-2---------|-0-0-0-0---0-0-0-0---00--00--|
|-0---0-0-0-0-0-0-0-0-0-0-0-0---------|-----------------------------|
|-0---3-0-0-3-0-0-3-0-3-0-3-0---------|-2-2-2-2---2-2-2-2---22--22--|
|-------------------------------------|-3-3-3-3---3-3-3-3---33--33--|
 
Ending
|---------------------------------|-1-1-1-1---1-1-1-1-----------|
|---------------------------------|-0-0-0-0---0-0-0-0-----------|
|---------------------------------|-0-0-0-0---0-0-0-0-Drum Fill-|
|---------------------------------|-------------------Drum Fill-|
|-------------------------3---5-0-|-2-2-2-2---2-2-2-2-----------|
|2-2-2-3-3-3-4-4-4-5-5-5----------|-3-3-3-3---3-3-3-3-----------| X3

|----------------------------------|-1-1-1-1---1-1-1-1~~~~~~~~~~~~~~~~|
|----------------------------------|-0-0-0-0---0-0-0-0~~~~~~~~~~~~~~~~|
|-------------------------5---7----|-0-0-0-0---0-0-0-0~~~~~~~~~~~~~~~~|
|-4-4-4-5-5-5-6-6-6-7-7-7-5---7----|----------------------------------|
|-4-4-4-5-5-5-6-6-6-7-7-7-3---5----|-2-2-2-2---2-2-2-2~~~~~~~~~~~~~~~~|
|-2-2-2-3-3-3-4-4-4-5-5-5----------|-3-3-3-3---3-3-3-3~~~~~~~~~~~~~~~~|






Like us on Facebook