Vegas Two Times Bass Tab - Stereophonics






-------------------------------------------------------------------------------
                       VEGAS TWO TIMES- THE STEREOPHONICS
-------------------------------------------------------------------------------

Tabbed By : AlternRocker17
e-mail: tommyjames@ntlworld.com

Tuning: standard tuning (GDAE)

CHORUS

G|-----------------------------------
D|-----------------------------------
A|--5-300-300-300-30---------3-5-----   x4
E|-------------------2-3-4-5---------

On the last time end with

G|-------------
D|-------------
A|-------------
E|--33333333---

VERSE

G|----------------------------------
D|-----------------2222222222222222-
A|-2222222222222222-----------------   x2
E|----------------------------------

Funny Bit

G|-------------------------
D|-------------------------
A|--5305----30---------3-5-   x4
E|-------------2-3-4-5-----


Right well that's it, it's a good fun song to play when you can get it right
because it's one of the few riffs that sounds as good on the bass as it does
on the guitar. Thanks a lot

AlternRocker17






Like us on Facebook