Building The Church Tab - Steve Vai






Posted by John Alvin Apaya from the Philippines
daddy_maps003@yahoo.com
Gtr I (E A D G B E) - 'Untitled'
Gtr II (C G C F A D) - 'Untitled'
Gtr III (C G C F A D) - 'Untitled'
Gtr IV (E A D G B E) - 'Untitled'
Gtr V (E A D G B E) - 'Untitled'
Gtr VI (E A D G B E) - 'Untitled'


   Intro
    Moderately Q=94
    N.C.
   4/4
    Gtrs I, IV
     |
     T  T  T  T  T  T  T  T  T  T  T  T  T  T  T  T  T  T  T  T  T  T  T  T  T  T  T  T  T  T  T  T   4x
||-----10----------10----------10----------10----------10----------10----------10----------10---------||
||o-13----------------13----------------13----------------13----------------13----------13-----------o||
||--------12----------------12----------------12----------------12----------------12----------12------||
||-----------10----------10----------10----------10----------10----------10----------10----------10---||
||o-------------12----------------12----------------12----------------12-----------------------------o||
||----------------------------------------------------------------------------------------------------||


    D5    E5                      D5    E5                       D5    E5    D5    E5
    Gtrs II, III
                                                                  PM---|
     S     S     e           S     S     S     S     S     S      S     S     S     S     E
||---------------------------------------------------------------------------------------------------|
||o--------------------------------------------------------------------------------------------------|
||---------------------------------------------------------------------------------------------------|
||------------------------------------------------------------------------------------------------|
||o--0h====2-----2-----------x-----0h====2-----2------------------0-----2-----0h====2-----x----------|
||---0h====2-----2-----------x-----0h====2-----2------------------0-----2-----0h====2-----x----------|
|
|   Gtrs I, IV
|    T  T  T  T  T  T  T  T  T  T  T  T  T  T  T  T  T  T  T   T  T  T  T  T  T  T  T  T  T  T  T  T
||-----10----------10----------10----------10----------10-----------10----------10----------10-------|
||o-13----------------13----------------13----------------13-----------------13----------13----------|
||--------12----------------12----------------12-----------------12----------------12----------12----|
||-----------10----------10----------10----------10-----------10----------10----------10----------10-|
||o-------------12----------------12----------------12-----------------12----------------------------|
||---------------------------------------------------------------------------------------------------|


     1.
  D5    E5                      D5    E5                N.C.
                                                                  ~~~~
                                                                               |------------6------------|
   S     S     e           S     S     S     S     S     S       +E            S    S    S     S    S    S
|--------------------------------------------------------------------------------------------------------------||
|-------------------------------------------------------------------------------------------------------------o||
|-------------------------------------------------------[4]b6r===(4)p==========2-------------------------------||
|-----------------------------------------------------------------------------------4p===2---------------------||
|--0h====2-----2-----------x-----0h====2-----2-------------------------------------------------5p===2p===0----o||
|--0h====2-----2-----------x-----0h====2-----2-----------------------------------------------------------------||
|
|  T  T  T  T  T  T  T  T  T  T  T  T  T  T  T  T  T  T  T     T  T   T  T  T  T  T    T    T  T  T    T    T
|----10----------10----------10----------10----------10--------------10----------10--------------10------------||
|-13----------------13----------------13----------------13--------------------13--------------13--------------o||
|-------12----------------12----------------12-------------------12-------------------12--------------12-------||
|----------10----------10----------10----------10-------------10-----------10--------------10--------------10--||
|-------------12----------------12----------------12--------------------12------------------------------------o||
|--------------------------------------------------------------------------------------------------------------||


  2.
  Gtrs II, III                                        Gt
   S     S     e           S     S     S      S  H
|-----------------------------------------------------||
|-----------------------------------------------------||
|-----------------------------------------------------||
|-----------------------------------------------------||
|--0h====2-----2-----------x-----0h====2------2-------||
|--0h====2-----2-----------x-----0h====2------2-------||
|
| Gtrs I, IV                                          Gt
|  T  T  T  T  T  T  T  T  T  T  T  T  T  T   s  H
|----10----------10----------10----------10-(17)------||
|-13----------------13----------------13--------------||
|-------12----------------12-----------------12-------||
|----------10----------10----------10-----------------||
|-------------12----------------12--------------------||
|-----------------------------------------------------||


 Verse I
  N.C.
 r I
    ~~~~~~~~~~~~~~~~~~~                       ~~~~~~~~~~~~~~~~
  S E.   +Q        +E.   S    +S  S E   E.    S +Q        +Q.       +E
|-------------------------------------|----------------------------------|
|-------------------------------------|----------------------------------|
|-------------------------------------|-------5-(5)-------(5)-------(5)/-|
|-5s7----(7)-------(7)---7pb8r(7)p5---|-5--------------------------------|
|-----------------------------------8-|----------------------------------|
|-------------------------------------|----------------------------------|
|
|rs II, III
|                                                                 ~
| S S  e  S  S S S  E  S S     S  S e   S S e    S  S S S  E  S S E  E
|-------------------------------------|----------------------------------|
|-------------------------------------|----------------------------------|
|-------------------------------------|----------------------------------|
|-------------------------------------|----------------------------------|
|-------------------------------------|----------------------------------|
|-0h2--2-----0h2-2-----0h2-----0h=2-2-|-0h3-3-------0h3-3-----0h5-5--3---|


                                                    ~~~~~~~
  E    E S E   S +E.   S     +S  S  E     E.     a  S  +H                   E    E
|-------------------------------------|--------------------------------------------|
|-------------------------------------|--------------------------------------------|
|--------5h7s==9-(9)---9pb10r(9)p7----|---------10s12-(12)---------------------/14p|
|-----7---------------------------10-|-/12----------------------------------------|
|-------------------------------------|--------------------------------------------|
|-------------------------------------|--------------------------------------------|
|
| S S  e S S S S  E  S S      S  S  e     S S e         S  S S S E S +S    +E    E
|-------------------------------------|--------------------------------------------|
|-------------------------------------|--------------------------------------------|
|-------------------------------------|--------------------------------------------|
|-------------------------------------|--------------------------------------------|
|-------------------------------------|--------------------------------------------|
|-0h2--2---0h2-2-----0h2------0h=2--2-|---0h3-3------------0h3-3---7-(7)b8r(7)---5-|


   Q       E.       S   +Q        E    E
|-------------------------------------------|
|-------------------------------------------|
|-11----------------------------------11s===|
|---------------------------/12---------|
|------------------(12)-----------------|
|-------------------------------------------|
|
|  S S e   S  S S   S    E  S S   S S  e
|-------------------------------------------|
|-------------------------------------------|
|-------------------------------------------|
|-------------------------------------------|
|-------------------------------------------|
|--0h2-2------0h2---2-------0h2---0h2--2----|


                                                                                                  |------3------|
  Q       Q         Q      E.      +T   T    S  S      +S   S      +S   S      +S   S  +E.    S  +S      +S     S  E
|-----------------------------------------|--------------------------------------------------------------------------|
|-----------------------------------------|--------------------------------------------------------------------------|
|-8-----/10-------/12-----14b15r==(14)p12-|-14-14pb15r(14)-14pb15r(14)-14pb15r(14)-14-(14)---14-(14)b15r(14)p==12----|
|-----------------------------------------|-----------------------------------------------------------------------15-|
|-----------------------------------------|--------------------------------------------------------------------------|
|-----------------------------------------|--------------------------------------------------------------------------|
|
|                          ~~~~~~
| S S e   S S S S   E S S  E    E            S  S       e           S   S       S   S   E  S  S   S          S     e
|-----------------------------------------|--------------------------------------------------------------------------|
|-----------------------------------------|--------------------------------------------------------------------------|
|-----------------------------------------|--------------------------------------------------------------------------|
|-----------------------------------------|--------------------------------------------------------------------------|
|-----------------------------------------|--------------------------------------------------------------------------|
|-0h3-3-----0h3-3-----0h5--5----3---------|--0h=2-------2---------------0h======2---2------0h=2---0h=========2-----2-|


           ~~~~~~~~~~~~~~~~~~~~~~
    E.     S      +Q         +Q.              +E
|-----------------------------------------------------|
|-----------------------------------------------------|
|---------17b19==(17)-------(17)-------------(17)r---|
|-/17-------------------------------------------------|
|-----------------------------------------------------|
|-----------------------------------------------------|
|
|   S S e          S  S S S   E  S +S    +E    E
|-----------------------------------------------------|
|-----------------------------------------------------|
|-----------------------------------------------------|
|-----------------------------------------------------|
|-----------------------------------------------------|
|---0h3-3-------------0h3-3------7-(7)b8r(7)---5------|


  D5Bb5     D5 Bb5               D5   Bb5 D5Bb5
  Gtrs V, VI
                                 |--3---|
  S   S S S  S S S  a  S  +S   S S  S   S S  S S  S
|---------------------------------------------------|
|---/11s9p8-----------------------------------------|
|-----------10-8-7-10s12-(12)s10-8h10p==8s7---------|
|-------------------------------------------10-8----|
|------------------------------------------------11-|
|---------------------------------------------------|
|
| Gtrs II, III
| S   S e    S S S     S   S   S S    S   S  S e
|---------------------------------------------------|
|---------------------------------------------------|
|---------------------------------------------------|
|---------------------------------------------------|
|-0h==8-8----x-0h8-----8-------x-0h===8---0h=8-8----|
|-0h==8-8----x-0h8-----8-------x-0h===8---0h=8-8----|


  D5 A5        D5 A5                 D5A5D5   A5
   E.     S  S  S  S  +S       +Q          E     +E
|-----------------------------------------------------|
|-----------13----------------------------------------|
|--------10-------------------------------------------|
|--------------10-10-(10)b12==(10)-------[10]r==(10)-|
|-10--------------------------------------------------|
|-----------------------------------------------------|
|
|  S S e     S  S  S   S        S  S S S   S  S   e
|-----------------------------------------------------|
|-----------------------------------------------------|
|-----------------------------------------------------|
|-----------------------------------------------------|
|--0h7-7-----x--0h=7---7-----------x-0h7---0h=7---7---|
|--0h7-7-----x--0h=7---7-----------x-0h7---0h=7---7---|


  D5Bb5              D5 Bb5               D5   Bb5   D5 Bb5
  Gtr V
                            ~~~~~~~~~~~~
  S  S     +S   S  S  S  S  S      +E      +S   T  T  S  S  S  S
|---18b20r(18)p16------------------------------------------------|
|-----------------20-18-16-20b21==(20)r===(20)h21p20p18----------|
|-------------------------------------------------------20-19h20-|
|----------------------------------------------------------------|
|----------------------------------------------------------------|
|----------------------------------------------------------------|
|
| Gtr VI
|                           ~~~~~~~~~~~~
| S  S     +S   S  S  S  S  S      +E.          T  T  S  S  S  S
|---15b17r(15)p13------------------------------------------------|
|-----------------16-15-13-16b18==(16)r--------15p13p11----------|
|-------------------------------------------------------13-12h13-|
|----------------------------------------------------------------|
|----------------------------------------------------------------|
|----------------------------------------------------------------|
|
| Gtrs II, III
| S  S      e      S  S  S  S       S   S   S   S     S  S  E
|----------------------------------------------------------------|
|----------------------------------------------------------------|
|----------------------------------------------------------------|
|----------------------------------------------------------------|
|-0h=8------8------x--0h=8--8-----------x---0h==8-----0h=8--8----|
|-0h=8------8------x--0h=8--8-----------x---0h==8-----0h=8--8----|


                                          Chorus I
  A5           Eb5                          E5                   D5E5              E5 F5
                                           Gtrs V, VI
                ~~~~~~~~~~~~~~~~~~~~~~~~                       ~~~~~~~~~~~~~~~~
   E.  S  +E    E      +Q.        +E         E.     S  +S   S  E    +Q    +S     S  S  S
|---------------------------------------||------------------------------------------------|
|---------------------------------------||-----------------13------------------/10-10-10--|
|-19--20-(20)--20b22==(20)-------(20)r-||--12b14==12-(12)----12---(12)--(12)r------------|
|---------------------------------------||------------------------------------------------|
|---------------------------------------||------------------------------------------------|
|---------------------------------------||------------------------------------------------|
|
|               ~~~~~~~~~~~~~~~~~~~~~~~~
|  E.  S  +E    E      +Q.        +E         W
|---------------------------------------||------------------------------------------------|
|---------------------------------------||------------------------------------------------|
|-12--13-(13)--15b17==(15)-------(15)r-||------------------------------------------------|
|---------------------------------------||------------------------------------------------|
|---------------------------------------||------------------------------------------------|
|---------------------------------------||------------------------------------------------|
|
|  E.  S  +E    E      +Q     Q              Q         +E.       S   Q.             S  S
|---------------------------------------||------------------------------------------------|
|---------------------------------------||------------------------------------------------|
|---------------------------------------||------------------------------------------4s=5--|
|---------------1------(1)--------------||------------------------------------------2s=3--|
|--7---7--(7)--1------(1)--------------||---2---------(2)p======0---2--------------2s=3--|
|--7---7--(7)--1------(1)--/12--------||---2---------(2)p======0---2--------------2s=3--|


  C5                  CM7sus2
  Gtrs V, VI
                       ~~~~~~~~~~~~~
   E.     S  +S   +S   E  +Q    +S   +S           E
|--------------------------------------------------------|
|-13b15==13-(13)r(13)-13-(13)--(13)-(13)/-------11------|
|--------------------------------------------------------|
|--------------------------------------------------------|
|--------------------------------------------------------|
|--------------------------------------------------------|
|
| Gtrs II, III
|                                |----------6----------|
|  E.     S  +E        E  +Q     E        +S     +S  S S
|--------------------------------------------------------|
|----------------------3--(3)----------------------------|
|--5------5--(5)-------4--(4)----------------------------|
|--5------5--(5)-------5--(5)----4--------(4)b5r=(4)p2p0-|
|--3------3--(3)-------3--(3)----------------------------|
|--------------------------------------------------------|


  E5           D5E5    C5  D5                          Gb         D
             ~~~~~~~~                                ~~~~~~~
   E.  S +E  E   +Q.     E      E      +S    S  +E   E  +Q.          +E
|----------------------------|---------------------------------------------|
|-10-------------------/15---|-15b17==(15)r-13-(13)-13-(13)---------(13)--|
|-----7-(7)-7---(7)---------|---------------------------------------------|
|----------------------------|---------------------------------------------|
|----------------------------|---------------------------------------------|
|----------------------------|---------------------------------------------|
|
|  Q     +E.   S  Q.     S S    H                        E   +E   E  +E
|----------------------------|---------------------------------------------|
|----------------------------|---------------------------------------------|
|----------------------------|--------------------------11--(11)-7--(7)--|
|------------------------5s7-|--7------------------------------------------|
|--2-----(2)p==0--2------3s5-|--5------------------------9---(9)-5--(5)--|
|--2-----(2)p==0--2----------|---------------------------------------------|


  E5                   E5                   F5
                        ~~~~~~~~~~~~~
   E.  S  +S   T  T  S  S  +Q    +S    S  S  S
|----------------------------------------------|
|-10--10-(10)h11p10----10-(10)--(10)-/10-10-10-|
|-------------------12-------------------------|
|----------------------------------------------|
|----------------------------------------------|
|----------------------------------------------|
|
|  Q      +E.           S   Q.            S  S
|----------------------------------------------|
|----------------------------------------------|
|-----------------------------------------4s=5-|
|-----------------------------------------2s=3-|
|--2------(2)p==========0---2-------------2s=3-|
|--2------(2)p==========0---2-------------2s=3-|


                                                 E5           E55D5
                       ~~~~~~~~~~~~~                         ~~~~~~~~~
   E.     S  +S   +S   E  +Q    +S   +S     E     E. S  +E   E    +Q.           E
|----------------------------------------------|-----------------------------------|
|-13b15==13-(13)r(13)-13-(13)--(13)-(13)/-11--|-10s15-(15)-15---(15)----------15--|
|----------------------------------------------|-----------------------------------|
|----------------------------------------------|-----------------------------------|
|----------------------------------------------|-----------------------------------|
|----------------------------------------------|-----------------------------------|
|
|  E.     S  +E        E  +Q.               E     Q     +E.    S   E  +E    Q
|---------0--(0)-------------------------------|-----------------------------------|
|----------------------3--(3)------------------|-----------------------------------|
|--5-------------------------------------------|-----------------------------------|
|--3-------------------------------------------|-----------------------------------|
|--3-------------------------------------------|--2-----(2)p===0---2--(2)/-12-----|
|--3----------------------------------------7-|--2-----(2)p===0---2--(2)/-12-----|


  D5     Eb5   D5EEb5     D5EbD5Eb5   D5     Eb5        DEb5  D5EbD5Eb5
  Gtr V
                                       

ĂŽnscrie-te la newsletter


Like us on Facebook