Christmas Time Is Here Tab - Steve Vai






this songs off the christmas album w/ all types of guitarists

Standard tuning
b=bend
~= 1 sec. break
 *note* you dont wanna play this soing supper fast

e--12-------------------12--------------------------
b-----13-13b~--10-10--------13-13b~----10-8-10b~----
g---------------------------------------------------
d---------------------------------------------------
a---------------------------------------------------
e---------------------------------------------------

e-------------------------------------------------
b-10--------7---------5---5-7b~-------------------
g-----9-9-8---8-8-7-6---6-------------------------
d-------------------------------------------------
a-------------------------------------------------
e-------------------------------------------------

any questions e-mail me at metalmulisha292@msn.com

tabbed by:dave

ĂŽnscrie-te la newsletter


Like us on Facebook