Die To Live Tab - Steve Vai






         Title : Die To Live
        Artist : Steve Vai
         Album : Alien Love Secrets
Transcribed by : Luiz Gustavo  =>  lgmt@freemail.soteris.com.br


Legend
------

 h  = hammer-on
 p  = pull-off
 b  = bend
 r  = bend release
 /  = slide up/down
 = natural harmonic
[5] = artifical harmonic
 ~  = vibrato
 tr = trill



Majestically                              TH12

E|------|----------0------------|-------------0----------|----------0---
B|------|-------2----0------/---|-------2--2----0--------|-------2----0-
G|------|-------2------2---2-4--|-------2--2------2/4/4--|-------2------
D|------|-----2-2--------2------|-----2-2--2-------------|-----2-2------
A|-14--|--0--------------------|--0---------------------|--0-----------
E|------|-----------------------|------------------------|--------------



                     TH12      semi-harm

E|----------|-------------------------||----------0------------|-------
B|----------|------2--2--2h3-2--------||-------2----0----------|-------
G|-2---2/4--|------2--2--------4-2-2--||-------2------2---2/4--|-------
D|---2------|----2-2--2---------------||-----2-2--------2------|-----2-
A|----------|-0-----------------------||--0--------------------|--0----
E|----------|-------------------------||-----------------------|-------



     TH12       semi-harm

E|----------------------|------------0------------|---------------------
B|-2--2---2h3-2-3/75---|---------2----0----------|-------2--2--2h3-2h3-
G|-2--2-----------------|---------2------2---2/4--|-------2--2----------
D|-2--2-----------------|-------2-2--------2------|-----2-2--2----------
A|----------------------|----0--------------------|--0------------------
E|----------------------|-------------------------|---------------------



                                           TH12        P.H.

E|----------|--------0------------|------0-----------------|-----------
B|-2-0------|-----2----0----------|------2--2--------------|-------2-2h
G|-----2-2--|-----2------2---2/4--|----0----2-2/42-2/9-9--|-------2---
D|----------|--0---------0-0------|--0---------------------|-----2-2---
A|----------|---------------------|------------------------|--0--------
E|----------|---------------------|------------------------|-----------



                          TH12

E|--------------|--------------------------------|---------------0-----
B|-3-2----------|-------2--2--2/h5-2-5-2---------|--------3--------1---
G|-----4-4-4/6--|-------2--2-------------42-2---|---(2)--0----------0-
D|--------------|-----2-2--2---------------------|-----------53-------
A|--------------|--0-----------------------------|----3----------------
E|--------------|--------------------------------|---------------------



                TH12 Harm...................................|

E|-------|----------5-------------|-----0---------------------|--------
B|-------|-------2----5-5---5-----|-----1---/12-10--10-------|--------
G|-------|-------2------------5---|-----0---/12-10--10-97---|------9
D|-2p0---|-------2----------------|---------/12-10--10-------|--------
A|-------|--0--0----------3-------|--3------------------75---|------7
E|-------|------------------------|--1------------------------|--------


E|------------------------------------||----------|------------|-------
B|-----2------------------------------||-----3--2-|--4--2-4/-6-|-----2-
G|-----2------------------------------||----------|------------|-------
D|-----2---4b5---r-(4)b5--r(4)p2---0--||----------|------------|-------
A|--0----------------------------4----||----------|------------|-------
E|------------------------------------||--3-------|------------|--2----


E--0--|----------------------|-----------|---------3/5--3--|-----------
B-----|----0-----------------|-----------|--1------1-3--1--|---------9-
G-----|---------2--/42-2-2--|-----2--0--|---------0----0--|---------9-
D-----|----------------------|-----------|---------3/5--3--|---------9-
A-----|----------------------|-----------|-----------------|--2---/7---
E-----|-------2--------------|--1--------|-----1-----------|--0--------


E|---------|---------------------------------|-----------------------|-
B|---7-9---|-------9b10--r--(9)--7---/9------|------------/12--10--9|-
G|---7-9---|-------9b10--r--(9)--7---/9------|------------/11---9--9|-
D|---7-9---|-------9b10--r--(9)--7---/9------|------------/13--11--9|-
A|---------|---------------------------------|-----------------------|-
E|---------|-----------------------------7---|---0--0-0--------------|-
                                       gliss.


                         midle finger tap A.H.

E|-----------0--0----||------------------0-----------|----------------0-
B|-7---(7)-/5--5----||--------/14-17p12---0---------|------/12-10/17---
G|-7---(7)----------||----------------------2---2/4-|------------------
D|-7---(7)----------||-----2------------------2-----|---2--------------
A|-------------------||---0--------------------------|-0----------------
E|-------------------||------------------------------|------------------


E|---------|----9-9-12-12/14-12-0----------|----------------------------
B|-0-------|-------------------------------|-----/14b1--r-(14)p12-------
G|---2/4/4-|----6-6--9--9/11--9---6/9/119-|----------------------14/21-
D|---------|-2-----------------------------|----------------------------
A|---------|-0--------------------4/7/-97-|--0-------------------------
E|---------|-------------------------------|----------------------------


E|-0-----------------|--------------------0---------|---12-(12)10/14--
B|---0---------------|----/14/(14)-17-12----0-------|---12-(12)10/14--
G|-------------------|------------------------6/9-4-|------------------
D|-------------------|-0----------------------------|-0----------------
A|-----4b5--r(4)p2-0-|------------------------------|------------------
E|-------------------|------------------------------|------------------


E|-14-14/151410/1412-|-----------------------------0---------|------
B|-14-14/151410/1412-|------/14-(14)-12-10-----------0-------|------
G|----------------------|---------------------11/139-----------|----4-
D|----------------------|---2-----------------------------------|-2--4-
A|----------------------|-0-------------------------------------|-0----
E|----------------------|---------------------------------4p2-0-|------



                            TH12 Harm...................................|

E|----------------------------|-----------------0---------|---------5---
B|----------14-14-12-1412-10-|---12--(12)-------1-------|------2----5-
G|-(4)p2/14-14-14-12-1412-12-|---12--(12)---------0-----|------2------
D|-(4)p2/14-------------------|---12--(12)-53-------2-0-|------2------
A|----------------------------|---10--(10)---------------|-0--0--------
E|----------------------------|-8-------------------------|-------------


E|----------|-----0-------------------|-------------|-----------0------
B|-5---5----|-----1---/12-10--10-----|----------3--|--(3)--3----------
G|-------5--|-----0---/12-10--10-97-|-9--2----2--|--(2)----2---3----
D|----------|---------/12-10--10-----|-----2----2--|--(2)-------------
A|---3------|--3------------------75-|-7

ĂŽnscrie-te la newsletter


Like us on Facebook