Eugenes Trick Bag Tab - Steve Vai






This is a really hard song from the old movie "Crossroads" not the new brittney movie. 
ok here it goes...

standard tuning
all notes are sixteenth notes unless otherwise noted
on this part hold 2 with your index finger then just hammer the other notes
play the whole song EXTREMELY fast

E-------|-------------------------------|------------
B-------|-------------------------------|------------
G--2-4-2|5-2-4-2-5-2-4-2-5-2-4-2-5-2-4-2|5-2-4-2-5-2-
D-------|-------------------------------|------------
A-------|-------------------------------|------------
E-------|-------------------------------|------------

E---------------------|-------------------------------|
B---------------------|-------------------------------|
G--4-2-5-2-4-2-5-2-4-2|5-2-4-2-5-2-4-2-5-2-4-2-5-2-4-2|
D---------------------|-------------------------------|
A---------------------|-------------------------------|
E---------------------|-------------------------------|
slow down gradually here
E----------------------------------|
B----------------------------------|
G--5-2-4-2-5-2-4-2-5-2-4-2-5-2~~~~~|
D----------------------------------|
A----------------------------------|
E----------------------------------|

E-------------------8-12-8-------------|
B----------------10--------10----------|
G--------------9--------------9-5------|
D---------7-10--------------------7----|
A-------7---------------------------5--|
E--5-8-------------------------------8|
P.M...|

E----------------4-7-4------------|
B--------------5-------5----------|
G----------4-7-----------7-4------|
D--------6-------------------6----|
A----5-7-----------------------7-5|
E--7------------------------------|

E------------------5--------------|
B--------------5-0---0-5----------|
G------------6-----------6--------|
D--------5-7---------------7-5----|
A----4-7-----------------------7-4|
E--5------------------------------|

E------------------10-13-10---------------|
B---------------10----------10------------|
G----------7-10----------------10-7-------|
D--------7--------------------------7-----|
A----5-8----------------------------------|
E--5----------------------------------10-8|

E---------------------------------------|
B--------------------9-12-9-------------|
G-----------------10--------10-7--------|
D------------9-12----------------9-6----|
A-------8-11-------------------------8--|
E--7-10--------------------------------7|

E-----------------------5---8----12-8-16~~~|
B-------------------5-----5---10-----------|
G---------------5-----5--------------------|
D-----------7-----7------------------------|
A-----7-------7----------------------------|
E---5---8----------------------------------|
these 3 are
a triplet
P.M......................|

speed up a little bit here
E-----------------------------17-15-13------------|
B-----13-17-13----15-17-15-13----------17-15-13---|
G--14----------16-------------------------------16|play this
D-------------------------------------------------|part 2x
A-------------------------------------------------|
E-------------------------------------------------|

E--------------17-15-13----------19-17-15---------|
B-----14-17-14----------17-14-15----------18-17-15|
G--14---------------------------------------------|
D-------------------------------------------------|
A-------------------------------------------------|
E-------------------------------------------------|

E-----------------------------17-15---------------|
B--------15----18-17-15-------------18-17-15------|
G-----16----16----------16-17----------------17-16|
D--17---------------------------------------------|
A-------------------------------------------------|
E-------------------------------------------------|

E--------------------------------------------17---|
B--------------18-17-15----------18-------------16|
G-----14-17-14----------17----16----19-17---------|
D--15----------------------18-------------19------|
A-------------------------------------------------|
E-------------------------------------------------|

E-----16-------14-------12-------10-------9------7-----5--|
B--17----17-15----15-14----14-12----12-10---10-9---9-7---7|
G---------------------------------------------------------|
D---------------------------------------------------------|
A---------------------------------------------------------|
E---------------------------------------------------------|

E----4---7-4---0-7-4---0-7-4---0-7-4---0|
B--5---5-----5-------5-------5-------5--|
G---------------------------------------|
D---------------------------------------|
A---------------------------------------|
E---------------------------------------|

E--7-4---0-7-4---0-7-4---0-7-4---0|
B------5-------5-------5-------5--|
G---------------------------------|
D---------------------------------|
A---------------------------------|
E---------------------------------|

E--7-4---0-14-11----0-17-14----0-12-9----0|
B------5---------12---------15--------10--|
G-----------------------------------------|play this part
D-----------------------------------------|4x
A-----------------------------------------|
E-----------------------------------------|

E--19-16----0-7-4---0-17-14----0-5-2---0|
B--------17-------5---------15-------3--|
G---------------------------------------|play this part 2x
D---------------------------------------|
A---------------------------------------|
E---------------------------------------|

E--22-19----0-10-7---0-20-17----0-8-5---0|
B--------20--------8---------18-------6--|
G----------------------------------------|play this part 2x
D----------------------------------------|
A----------------------------------------|
E----------------------------------------|

E--22-19-16----19-16-------16---------------------|
B-----------18-------18-------18-------18---------|
G-----------------------19-------19-16----19-16---|
D-----------------------------------------------18|
A-------------------------------------------------|
E-------------------------------------------------|

E-------------------------------------------------|
B-------------------------------------------------|
G--19-16-------16---------------------------------|
D--------18-15----18-15----18-15-------15---------|
A-----------------------17-------17-14----17-14---|
E-----------------------------------------------16|

E-----------|------|---|----------12-----|--24~~~|
B-----------|------|---|------5---------|-------|
G----------2|------|---|--------9--------|-------|
D----------2|--2---|---|----2--------14--|-------|
A----------0|--2---|---|--7-------------|-------|
E--17-17----|--0--0|--0|----------------0|-------|
                  ^
                trem.
E--------------------------------------|
B-------------------------------9-10-12|
G------------------------7-9-10--------|
D---------------6-7-9-10---------------|
A---------5-7-8------------------------|
E--5-7-8-------------------------------|

E-----10-12-13-16-17-19-20-22-24-24-29|
B--13---------------------------------|
G-------------------------------------|
D-------------------------------------|
A-------------------------------------|
E-------------------------------------|

its not a typo at the end on the high notes. if your guitar doesn't have enough 
frets to play it then press it down on the pickup to get high enough.

KEY:
 = slide
trem. = tremolo picking(picking very fast)
P.M. = Palm Mute
any questions, comments, suggestions, corrections, or anything else email me at 
zachzeller@earthlink.net

ĂŽnscrie-te la newsletter


Like us on Facebook