For The Love Of God (ver3) Tab - Steve Vai






FOR THE LOVE OF GOD
As recorded by Steve Vai
(From the 1990 Album PASSION & WARFARE)

Music by Steve Vai
Transcribed by Jorge carrillo (Lead_guitar666@hotmail.com)

 With Half-Time Feel
  Moderately Q=100
                  Emadd9
 4/4
  Gtr I
         |-3--|
  H    a Q Q  Q    S  E.    +H.              +H         E  E E E
|---------------|-------------------------|------------12s10-7---|
|------------10-|-10s12----(12)-----------|-(12)---------------8-|
|----------7----|-------------------------|----------------------|
|------7s9------|-------------------------|----------------------|
|---------------|-------------------------|----------------------|
|---------------|-------------------------|----------------------|
|
| Gtr II
| W                E     E   E  E E E E E     E  E E E  E  E E E
|---------------|-------------------0-----|----------------0-----|
|---------------|-----------------0-------|-------------0--------|
|---------------|---------------0-----0---|----------0-------0---|
|---------------|------------4----------4-|--------4-----------4-|
|---------------|--------2----------------|------2---------------|
|---------------|--0----------------------|---0------------------|


     Fmaj7+11
                                        |---3----|
   a  Q.      E  H          +H        a Q   Q    Q
|------------------------|---------------------------|
|-10s12------15p10-------|-(10)-----------------10---|
|------------------------|------------------7--------|
|------------------------|------------7S9------------|
|------------------------|---------------------------|
|------------------------|---------------------------|
|
|     E  E E  E  E E E E     E  E E E   E E   E    E
|------------------0-----|----------------0----------|
|----------------0---0---|--------------0-----0------|
|-------------2--------2-|----------2--------------2-|
|----------3-------------|--------3------------------|
|--------3---------------|------3--------------------|
|-----1------------------|---1-----------------------|


  Emadd9
   S  E.    +H.              +H         E  E E E
|-------------------------|------------12s10-7---|
|-10s12----(12)-----------|-(12)---------------8-|
|-------------------------|----------------------|
|-------------------------|----------------------|
|-------------------------|----------------------|
|-------------------------|----------------------|
|
|  E     E   E  E E E E E     E  E E E  E  E E E
|-------------------0-----|----------------0-----|
|-----------------0-------|-------------0--------|
|---------------0-----0---|----------0-------0---|
|------------4----------4-|--------4-----------4-|
|--------2----------------|------2---------------|
|--0----------------------|---0------------------|


     Amadd9
                                        |---3----|
   a  Q.      E  H          +H        a Q   Q    Q
|------------------------|----------------------------|
|-10s12------15p10-------|-(10)-----------------10----|
|------------------------|------------------7---------|
|------------------------|------------7s9-------------|
|------------------------|----------------------------|
|------------------------|----------------------------|
|
|     E  E E  E  E E E E     E  E E E   E E   E    E
|------------------5-----|----------------5-----------|
|----------------5-------|--------------5-----5-------|
|-------------5------5---|----------5--------------5--|
|----------9-----------9-|--------9-------------------|
|--------7---------------|------7---------------------|
|-----5------------------|---5------------------------|


  Emadd9
   S  E.    +H.              +H         E  E E E
|-------------------------|------------12s10-7---|
|-10s12----(12)-----------|-(12)---------------8-|
|-------------------------|----------------------|
|-------------------------|----------------------|
|-------------------------|----------------------|
|-------------------------|----------------------|
|
|  E     E   E  E E E E E     E  E E E  E  E E E
|-------------------0-----|----------------0-----|
|-----------------0-------|-------------0--------|
|---------------0-----0---|----------0-------0---|
|------------4----------4-|--------4-----------4-|
|--------2----------------|------2---------------|
|--0----------------------|---0------------------|


  Cmaj7
   a  Q.      E  H          +H         E  E E E
|------------------------|------------12s10-7-----|
|-10s12------15p10-------|-(10)---------------8---|
|------------------------|------------------------|
|------------------------|------------------------|
|------------------------|------------------------|
|------------------------|------------------------|
|
|     E  E E  E  E E E E     E  E E E  E  E E E
|----------------0-------|-------------0----------|
|-------------0----0-----|----------0-----0-------|
|----------0---------0---|--------0---------0-----|
|--------2-------------2-|------2-------------2---|
|-----3------------------|---3--------------------|
|------------------------|------------------------|


  Fmaj7+11
  Gtr I
   S  E.    E  S S  E  E  Q      +Q     +E  E a Q   S S E
|-----------------------------|---------------------------|
|-10s12----12-12---12s10-10---|-(10)---(10)---5s8---7-----|
|-----------------------------|-----------------------9-7-|
|-----------------------------|---------------------------|
|-----------------------------|---------------------------|
|-----------------------------|---------------------------|
|
| Gtr II
|  E     E  E  E    E  E  E E     E  E   E  E   E E E   E
|----------------------0------|-------------------0-------|
|-------------------0-----0---|-----------------0---0-----|
|--------------2------------2-|-------------2-----------2-|
|-----------3-----------------|----------3----------------|
|--------3--------------------|------3--------------------|
|--1--------------------------|---1-----------------------|
|
| Gtr III
|  W                              W
|-----------------------------|---------------------------|
|-----------------------------|---------------------------|
|-----------------------------|---------------------------|
|-----------------------------|---------------------------|
|-----------------------------|---------------------------|
|-----------------------------|---------------------------|


  Emadd9
                                             |-----3------|
  S E.   +H.                +Q    +Q     a   Q   Q        Q
|-------------------------|----------------------------------------|
|-------------------------|------------------------------10--------|
|-7-9----(9)--------------|-(9)---(9)-----------7-----------------|
|-------------------------|--------------7s==9---------------------|
|-------------------------|----------------------------------------|
|-------------------------|----------------------------------------|
|
| E    E  E  E E E   E  E    E  E  E   E     H
|----------------0--------|------------------0---------------------|
|--------------0----------|------------------0---------------------|
|------------0-------0----|------------0---------------------------|
|---------4-------------4-|--------4-------------------------------|
|------2------------------|-----2----------------------------------|
|-0-----------------------|--0-------------------------------------|
|
|                                                    |---3----|
| H            Q     Q       H              +Q      +E    E   E
|-------------------------|----------------------------------------|
|-------------------------|-------------()---()--------|
|---------------------|-------------()---()--------|
|---------------------|----------------------------------------|
|-------------------------|----------------------------------------|
|-------------------------|----------------------------------------|


  Emadd9
   ~~~~~~
   W                 +H       E     E E E
|-----------------|----------10b12r10-7---|
|-10b12===========|=(10)r---------------8-|
|-----------------|-----------------------|
|-----------------|-----------------------|
|-----------------|-----------------------|
|-----------------|-----------------------|
|
|  Q      Q  H        W
|-----------------|-----------------------|
|-----------------|-----------------------|
|--------------|-----------------------|
|-----------------|-----------------------|
|-----------------|-----------------------|
|-----------------|-----------------------|


  Fmaj7+11
   ~~~~~
                               |-3--|
   Q.      E  H       +H     a Q Q  Q
|------------------|------------------|
|-10b12---15p10----|-(10)----------10-|
|------------------|-------------7----|
|------------------|---------7s9------|
|------------------|------------------|
|------------------|------------------|
|
|  W                   W
|------------------|------------------|
|------------------|------------------|
|------------------|------------------|
|------------------|------------------|
|------------------|------------------|
|------------------|------------------|


  Emadd9
   W                    +Q    E   S      S   Q       S  S   E
|--------------------|-----------10pb12r10--10b12r==10--7------|
|-10b12==============|=(10)---------------------------------8--|
|--------------------|-----------------------------------------|
|--------------------|-----------------------------------------|
|--------------------|-------(7)-------------------------------|
|--------------------|-------(7)-------------------------------|
|
|  H        Q    Q       Q    Q              Q       E      E
|--------------------|-----------------------------------------|
|--------------------|------------------------------|
|----------------|-----------------------|
|----------------|----------------------------------|
|--------------------|-----------------------------------------|
|--------------------|-----------------------------------------|


  Amadd9
                    1
                    |--3---|
   Q.       E  Q    E   E  E    H     Q      E E
|----------10----------------|--------------------|
|-10b12=======10r--10--10-15p|=10----10b12r=10-8--|
|----------------------------|--------------------|
|----------------------------|--------------------|
|----------------------------|--------------------|
|----------------------------|--------------------|
|
|  H           H                W
|----------------------------|--------------------|
|----------------------------|--------------------|
|----------------------------|--------------------|
|-------------------------|--------------------|
|----------------------------|--------------------|
|----------------------------|--------------------|


  Emadd9
    W               +H      E     E  E  E
|----------------|------------------------|
|-[10]b12--------|-(10)----15b17r15-12----|
|----------------|---------------------12-|
|----------------|------------------------|
|----------------|------------------------|
|----------------|------------------------|


  Cmaj7
   Q.     E   E   Q.      +Q.     S  S  E     E  E  E
|----------------------|------------------------------|
|-------[15]s10-[10]---|-(10)---(10)s0-15b17r15-12----|
|-14-------------------|-------------0-------------12-|
|----------------------|------------------------------|
|----------------------|------------------------------|
|----------------------|------------------------------|


  Fmaj7+11
                                       ~~~~
                      |----3----|
   Q.       E   Q    +E    E    E      Q    +E  S S Q  S S E
|----------------------------------|-------------------------|
|----------------------------------|--------------5s8p=7-----|
|-14b16====14-[14]r=(14)-[14]-[14]-|-[14]--(14)-0--------9-7-|
|----------------------------------|------------0------------|
|----------------------------------|-------------------------|
|----------------------------------|-------------------------|


  Emadd9
  a W          +Q   Q    Q    E   a  E
|------------|--------------------------|
|------------|------------------/10s15--|
|-7s9--------|-(9)------12--/4---------|
|------------|------x--12-------------|
|------------|------x------------------|
|------------|--------------------------|


 Second Theme
  G
   E  E  E  E  E E E  E    a Q.    E Q.     E
|-----------------------|---------------------|
|-15s12-12s10-10s8-8s12-|-12s5s====3-3s====15-|
|-----------------------|---------------------|
|-----------------------|---------------------|
|-----------------------|---------------------|
|-----------------------|---------------------|
|
| Gtr II
|  E  E  E  E  E E E  E      E E E E E E E  E
|----------------3------|-------------------3-|
|--------------3---3----|----------------3----|
|-----------4---------4-|--------------4------|
|--------5--------------|----5-------5--------|
|-----5-----------------|------5---5----------|
|--3--------------------|--------3------------|


  Fmaj7sus2
   1/     1/
   E    E  E    E  E E E  E    E.   S S S S S S E.   +E    E
|---------------------------|---------------------------------|
|-15s==12-12s==10-10s8-8s12-|-12-------------------------/15--|
|---------------------------|-----------7s9s7s9s7----(7)------|
|---------------------------|---------------------------------|
|---------------------------|---------------------------------|
|---------------------------|---------------------------------|
|
|  E    E  E    E  E E E  E    E  E   E   E   E    E  E    E
|--------------------0------|------------------------------0--|
|------------------1---1----|-------------------------1-------|
|---------------0---------0-|----------------------0----------|
|----------3----------------|--3--------------3---------------|
|-------3-------------------|-----3-------3-------------------|
|--1------------------------|---------1-----------------------|


  Em
   E  E  E  a  E  +Q    E  S S    Q   E  S S  E.   S E E
|------------------------------|-------------------------|
|-15s12s10-10s12-(12)-----10s8s|=12-----10s8s12s==15s5p3-|
|------------------------------|-------------------------|
|------------------------------|-------------------------|
|------------------------------|-------------------------|
|------------------------------|-------------------------|
|
|  E  E  E     E   E  E E  E      E E E  E    E E    E E
|---------------------0--------|-----------------------0-|
|------------------0----0------|---------------------0---|
|--------------0-----------0---|----------------0--------|
|--------2---------------------|--2-----------2----------|
|-----2------------------------|----2----2---------------|
|--0---------------------------|------0------------------|


    Dsus2                        D
                                  1.5
  a Q.     E  H        +H        +Q      E.   S
|--------------------|--------------------------|
|-3s5------3--3------|-(3)-------(3)-----3------|
|--------------------|--------------------------|
|--------------------|------------------------0-|
|--------------------|--------------------------|
|--------------------|--------------------------|
|
|   E  E E E +Q.   E    E  E E E  E    E E  E
|----------5-(5)-----|--------------------------|
|----------5-(5)---5-|-----5--------------------|
|--------7-----------|--7------7-------2----4---|
|------7-------------|-------7----4------5------|
|---5----------------|--------------------------|
|--------------------|--------------------------|


  G
   H           Q    +S   S  S  S    +S   S  S  S  +Q     E  S  S  E E
|--------------------------------|------------------------------------|
|-15b17r======15---(15)-15s17s15-|-(15)-15s17s15-(15)---12h13p12s10s8-|
|--------------------------------|------------------------------------|
|--------------------------------|------------------------------------|
|--------------------------------|------------------------------------|
|--------------------------------|------------------------------------|
|
|  E    E E E  E E   E      E        E      E      E  E  E  E     E E
|----------------3---------------|----------------------------------3-|
|--------------3-----3-----------|--------------------------------3---|
|-----------4---------------4----|--------------------------4---------|
|---------5----------------------|---5-------------------5------------|
|-------5------------------------|----------5---------5---------------|
|--3-----------------------------|-----------------3------------------|


  Fmaj7sus2
                                ~~~
   E  E  E  a  E  +E  Q.       +H        +Q.      S  S
|-13s12-10-10s12-(12)S8------|-(8)-------(8)--------(0)---|
|-13s12-10-10s12-(12)S8------|-(8)-------(8)s====12p=0----|
|----------------------------|----------------------------|
|----------------------------|----------------------------|
|----------------------------|----------------------------|
|----------------------------|----------------------------|
|
|  E  E  E     E   E  E  E E    E  E E E  E  E E  E
|---------------------0------|--------------------0-------|
|------------------1-----1---|-----------------1----------|
|--------------0-----------0-|---------------0------------|
|--------3-------------------|--3---------3---------------|
|-----3----------------------|-----3---3------------------|
|--1-------------------------|-------1--------------------|


  Em
   ~~
                                                           |-3--|
   H        S  S  S  S  a      Q      +S   S  S  S S T T E S  S S E E.    S
|-17-------14----------------------|----------------------------------------|
|-------------15-------------------|----------------------------------------|
|----------------14s11-11tr12-11---|-(11)-----------------------------------|
|----------------------------------|------14-12-----------------------------|
|----------------------------------|------------14-9-7-9-7-9-10-9-7-9----17-|
|----------------------------------|----------------------------------------|
|
|  E E E E  E     E            E E     E      E    E     E E      E E  E
|-----------------0----------------|------------------------------0---------|
|-----------0------------------0---|-----------------------0--------0-------|
|--------0-----------------------0-|---------------------0-------------0----|
|------2---------------------------|---------------2------------------------|
|----2-----------------------------|----------2-----------------------------|
|--0-------------------------------|---0------------------------------------|


  Dsus2                                 D5
                                    /        |
   |---3---|  |---3---|                               |-3--|
   E  E    E  E  E    E  a  Q.      E    +S  E. E E a Q Q  Q
|-19-17---15--------------------------|------------------------------|
|------------19-17---19-19p15------15-|-(15)-x------------10---------|
|-------------------------------------|-----------------7------------|
|-------------------------------------|-------------7s9--------------|
|-------------------------------------|------------------------------|
|-------------------------------------|---------0h3------------------|
|
|  E    E     E    E        E  E E  E     W                  a a a a
|-------------------------------------|---5------------------0-------|
|------------------5--------5---------|---5--------------------0-----|
|-------------7----------------7------|--------------------------0---|
|-------7------------------------7----|----------------------------4-|
|--5--------------------------------5-|------------------------------|
|-------------------------------------|------------------------------|


 First Theme Rephrased
  Emadd9
            |--3---|   |----3----|                                         |---3----|
   Q       +E   E  E   Q    Q    Q      +Q      S  E     S     E  S  S  E  S     S  S
|-----------------------------------|-------------------------------------------------|
|-10b12===(10)-10-10-[10]-[10]-[10]-|-([10])r--15-15b17r15b17r15-15-12-12-------------|
|-----------------------------------|-------------------------------------14b16r14-12-|
|-----------------------------------|-------------------------------------------------|
|-----------------------------------|-------------------------------------------------|
|-----------------------------------|-------------------------------------------------|


  Fmaj7+11
               2.5_________|
           ~~~~~~~~~~
                                   |-3--|
   Q.      E  +H           +H      Q Q  Q
|-----------------------|------------------|
|---------15-(15)-------|-(15)---------10--|
|-14b16-----------------|------------7-----|
|-----------------------|---------/9-------|
|-----------------------|------------------|
|-----------------------|------------------|


  Emadd9
                              |-----3-----|
    E        E   +Q    +Q     E     E     E
|--------------------------------------------|
|-[10]b12==[10]-(10)--(10)r--10b12-10b15-10r-|
|--------------------------------------------|
|--------------------------------------------|
|--------------------------------------------|
|--------------------------------------------|


                                                    Amadd9
                  |--3--|                                                 |--3--|
   Q     E  E     S  S  S  E     S  S  T     T  S    H        S  S  S  S  E  E  E
|----------------12-------------15----------------|-------------------------------|
|-10b12----15b17----15p12----------15-------------|-------------12h13p12----------|
|-------------------------14b16-------14b16r14p12-|-14b16----15----------15-14-13-|
|-------------------------------------------------|-------------------------------|
|-------------------------------------------------|-------------------------------|
|-------------------------------------------------|-------------------------------|


                                        Emadd9
                                                       4___|
   |--3--|
   e  E  E  E  E  S  S  S  S  e  S  S     H     +E   S S   +Q
|-------------------------------------|-------------------------|
|----------13-12----------------------|-------------------------|
|-12-14-15-------15p14p12----12-12h14-|--12----(12)-14p0---(0)--|
|-------------------------14----------|-------------------------|
|-------------------------------------|-------------------------|
|-------------------------------------|-------------------------|


   ~~~~~                                ~~~
           |--3--|
   Q.      S  S  S  S      S     E   S  E.
|---------12-------------------------------|
|-15b17------15p12-15b17==15----15r--------|
|-------------------------14b16-14--12-----|
|--------------------------------------14--|
|------------------------------------------|
|------------------------------------------|


  Cmaj7
   H     S  S  a  E  Q     +Q.    a  E  S  S  S  S      +E   E
|-----------------------|---------------------------------------|
|-----------------------|---------------------------------------|
|-12--------------------|--------19s14-12----14-12b14==(12)-12r-|
|-------14-12-----------|-----------------14--------------------|
|-------------14s12-10--|-(10)----------------------------------|
|-----------------------|---------------------------------------|


  Fmaj7+11
   |--3--|                       |-3--|    |-3--|
   E  E  E  E.    S  S  E   S    E    S    E    S
|---------------------------------------------------|
|---------------------------------------------------|
|-12----14-12b14r12-12-14-[16]s[14]-[16]s[14]-[16]s=|
|----14---------------------------------------------|
|---------------------------------------------------|
|---------------------------------------------------|


                          |3-|  |3-|     |3-|  |3-|
    S   S  S  S   Q       E  S  E  S  a  E  S  E  S
|---------------------------------------------------|
|---------------------------------------------------|
|-[14]-12----14-[12]b14--12-11----------------------|
|---------14-------------------14-12----------------|
|------------------------------------14s12-10-------|
|---------------------------------------------12-10-|


  Emadd9
                                           5
            |3-|  |3-|  |3-|
   a  H     S  E  E  S  E  S  E    Q.    E Q.   E
|-------------------------------|-------------------|
|-------------------------------|----------0--------|
|-------------------------------|----------0--------|
|-12s14----12-------------------|-------------------|
|-------------14-12-------------|-------12----------|
|-------------------14s12-10-12-|-12----------------|


                             ~~~~~~~~~~~
   Q       +E   S  S S  E.  +Q      +H      Q   E   E
|-17b19===(17)-17-17---17--(17)--|-(17)----17--17rp15-|
|--------------------------------|--------------------|
|--------------------------------|--------------------|
|--------------------------------|--------------------|
|--------------------------------|--------------------|
|--------------------------------|--------------------|


  Fmaj7+11
   E      E  +E   S  S  E  E  Q     +H.       E  S  S
|-19b22==19-(19)-19r19p17--------|---------------------|
|-------------------------20-20--|-(20)------15-15h20--|
|--------------------------------|---------------------|
|--------------------------------|---------------------|
|--------------------------------|---------------------|
|--------------------------------|---------------------|


  Emadd9
                             ~~~~~~~~~~~~~~
   H.       E  S  S    S  E  S  +Q    +Q    E  E
|-------------------|----------------------------|
|-19-------19-17s15-|-15s17-17-(17)--(17)s=15s12-|
|-------------------|----------------------------|
|-------------------|----------------------------|
|-------------------|----------------------------|
|-------------------|----------------------------|


  Amadd9
                             1_____________|
                          |---3---|     |--3---|  |--3--|
   E. S      +Q    E. S   E  E    E    +E   E  E  E  E  E  E  E  E  E
|-----------------------------------|------------10-12-14-15-17S19s22--|
|-12s14b15==(14)--14s12r-12---------|---------12-----------------------|
|---------------------------14---14-|-(14)-14--------------------------|
|-----------------------------------|----------------------------------|
|-----------------------------------|----------------------------------|
|-----------------------------------|----------------------------------|


  Emadd9
          ~~~~
                      |-3-|
   H     +Q   Q     E S S S  Q       +Q    E  E
|-22----(22)------|---------17b19===(17)r=17s15-|
|-----------------|-------x---------------------|
|-------------x--|-0---x-----------------------|
|-------------x--|---x-------------------------|
|-----------------|-----------------------------|
|-----------------|-----------------------------|


  Cmaj7
   

Înscrie-te la newsletter


Like us on Facebook