For The Love Of God Intro Tab - Steve Vai






Repeat Twice:
E---------------12p10--7------10----------------------------
B-------10-s12-----------8-s12---10-------------------------
G-----7-----------------------------------------------------
D--/9-------------------------------------------------------
A-----------------------------------------------------------
E-----------------------------------------------------------
                                             Dive--
E-12p10--7--------------------------------------------------
B----------8s12--12-12-12-----10----------------------------
G---------------------------------7h9p7h9-------------------
D-----------------------------------------------------------
A-----------------------------------------------------------
E--------------------------------------------0-w/bar--------

Thats All For Now

ĂŽnscrie-te la newsletter


Like us on Facebook