Giant Balls Of Gold Bass Tab - Steve Vai






Intro x 4

E--------------------------------------------------------|
A--------------------------------------------------------|
D--------------------------------------------------------|
G-7-2---0-0---0-0---0-0--0-0-2---0-0---0-0---0-2---------|
(slide only the first time)

Verse

E------------------------------------------------------|
A------------------------------------------------------|
D------------------------------------------------------|
G--2---0-0---0-0---0-0--0-0--2--0-0---0-0---0-0--------|


Fill 1min 33secs

G----9-------------------------------------------------

Back to verse
E------------------------------------------------------|
A------------------------------------------------------|
D------------------------------------------------------|
G--2---0-0---0-0---0-0--0-0--2--0-0---0-0---0-0--------|


Outro
E-----------------------------------------------------|
A-----------------------------------------------------|
D-----------------------------------------------------|
G--2---0-0---0-0---0-0--0-0--2---0-0---0-0---0-2------|

ĂŽnscrie-te la newsletter


Like us on Facebook