Juice (ver2) Tab - Steve Vai






Gtr I (E A D G B E) - 'Steve Vai - Distorted Electric'

Intro
  swing feel Q=200(8=s8)
 4/4
  Gtr I
   |--3--|  |--3--|  |--3--|  |--3--|    |--3--|      |--3--|
   E  E  E  E  E  E  E  E  E  E  E  E    E  E  E  Q   Q  Q  Q
|-------------------------------------|-----------------------|
|-------------------------------------|-----------------------|
|-12-12-12-12-12-12-12-12-12-12-12-12-|-12-12-12-12--12-12-13-|
|-12-12-12-12-12-12-12-12-12-12-12-12-|-12-12-12-12--12-12-13-|
|-10-10-10-10-10-10-10-10-10-10-10-10-|-10-10-10-10--10-10-11-|
|-------------------------------------|-----------------------|


                                    ~~~
    Q    Q  E E E E   E E E E Q  E  E
|-------------------|------------------|
|-------------------|------------------|
|-[14]-------------|------------------|
|-------------------|------------------|
|-------------------|---------0--------|
|--------3--5p0-3p0-|-5p0-3p0----0-[5]-|


                                                    7____/
    ~~~~~
   +Q     E.  S   E.  S   Q      Q   Q  Q  E  E    +Q    +Q   +Q    E  E
|-----------------------------|------------------|-----------------------|
|-----------------------------|------------------|-----------------------|
|-----------------------------|---------------|-(5)---(5)--(5)--------|
|-----------------------------|------------------|-----------------------|
|-----------------------------|------------------|-----------------------|
|-([5])--[3]p(0)-[5]p(0)-[3]--|-[5]--3--5--0-----|-----------------[3]p0-|


                                       ~~~
   E      +E    +E   E +Q   E E        +Q   E E  E E E E   +E  E Q  E E E E
|-----------------------------------|--------------------|-------------------||
|-----------------------------8b10==|=(10)---------------|----------------5--||
|-----------------------------------|-------5p0--------2-|-(2)----------7-5h=||
|-----------------------------------|------------------2-|-(2)----------7----||
|-----------------------------------|-----------5p3---0-|-(0)---------------||
|-[5]b8==([8])r([5])p3-(3)--0-------|----------------3---|------------5------||


 Theme
  Q   E E E E E E   E E E E Q  E E
|-----------------|----------------|
|-----------------|----------------|
|-6--------------|------------7-5h|
|-----------------|------------7-5-|
|-----------------|---------0------|
|-----3---5p0-3p0-|-5p0h3p0--------|


  Q   E E E E E E    E  E  E      +E   +E   E E E
|-----------------|---------------------------------|
|-----------------|---------------------------7-----|
|-6--------------|---------------------------7-5h==|
|-----------------|---------------------------7-----|
|-----------------|------------------------/7-------|
|-----3p0-5p0-3p0-|-[5]p0-[3]b5==([5])-(5)----------|


  E E E E E  E  E E   E  E  E E E E E E   Q  E E E E E E    E  E E E Q   E E
|-------------------|-------------------|----------------|--------------------|
|-----7-------------|-------------x-----|----------------|--------------------|
|-6---7-5-6--7-7s|=9--7-5h6---7-6s|=4--------------|--------------/6s4--|
|-----7---------7-7s|=9-----7-5-----7-7s|=5--------------|--------------/7s5--|
|-------------------|-------------------|----------------|-----------0--------|
|---5---------------|-------------------|----3p0-5p0-3p0-|-[5]p0-3p0----------|


  +Q   E E E E  Q     +E  E E E +E  E E E   Q   E E E E E E   E E Q  E E E E
|-------------------|---------------------|-----------------|------------------|
|-------------------|-----------------7-5-|-----------------|------------------|
|-(4)---------------|-----------------7-5h|=6--------------|------------7-5h==|
|-(5)---------------|-----------------7-5-|-----------------|----------7-7-5---|
|----------5p0-[4]--|-(4)p0---------------|-----------------|------------------|
|------3------------|-------3-3-(3)-------|-----3---5p0-3p0-|-5p0-3--5---------|


                                           PM      PM                PM
  E  E  E  E E E Q    E E E E +Q   E E   E E E E E E E E   E E E E E E E E
|-------------------|------------------|-----------------|-------------------|
|-------------------|------------------|-----7-5---------|-------5-----------|
|-6-(0)-------------|--------------7-5h|=6---7-5h6---7-7s|=8---7-5h6---7-6s==|
|-------------------|-------2-(2)--7-5-|-----7-5-----7-7s|=8---7-5-----7-7s==|
|-------7s10s5s7s4s=|=2p0---0-(0)------|-----------------|-------------------|
|-------------------|-----3------------|---5-------5-----|-----------5-------|


  Q  E E Q   E      +E      +E       +E    +E   E +E  E E E
|------------------------|----------------------------------|
|------------------------|----------------------------------|
|-4----------------------|------------------------------6-4-|
|-5----------------------|----------------------------7-7-5-|
|--------5--[4]b5==([5])r|=([4])b5==([5])r([4])s5-(5)-------|
|----3p0-----------------|----------------------------------|


                                    ~~~~~
  +E   E E E E E E  E     +E       +Q.    E   Q.
|----------------------|----------------------------|
|----------------------|----------------------------|
|-(4)----7p0-6p0-------|----------------------------|
|-(5)-/9---------5-----|------------------x--------|
|------------------[7]-|-([7])b9==([9])---x-19----|
|----------------------|----------------------------|


                             |--3--|
  Q  E E +E  E Q    +E    E  E  E  E  E  E  +Q
|-----------------|-------------------------------|
|-3--3-3-(3)-3----|---------17p14----12-14-(14)--|
|-0--0-2-(2)-0-2--|-(2)-----14----------14-(14)--|
|-0--0-0-(0)-0-2--|-(2)-/14-------14-12-14-(14)--|
|--------------0--|-(0)---------------------------|
|-3--3------------|-------------------------------|


                       ~~~~~~~~~~
   E  E  E  E  +E   E  Q     +Q   Q  E Q.
|-------------------------|-----------------|
|-------12-10-(10)-10-10--|-(10)--8--7s5----|
|----12-------------------|-----------------|
|-12------------------11--|-(11)--9--7s5----|
|-------------------------|-----------------|
|-------------------------|-----------------|


                                            ~~~~
                               |--3--|
    Q.    E  +Q    Q     +Q    E  E  E  E   Q.
|--------14-(14)------|-------------12-----------|
|--------15-(15)------|-------12h14----12--------|
|-/12-------------14--|-(14)--------------[14]---|
|-/12-------------14--|-(14)---------------------|
|---------------------|--------------------------|
|---------------------|--------------------------|


                                ~~
   E  E E  E  E E  E E    E Q   E  +E  E E E
|----------------------|---------------------|
|-15s14---14s12---10---|-12----10-(10)---7---|
|-------0-------0----0-|----0----------0---0-|
|----------------------|---------------------|
|----------------------|---------------------|
|----------------------|---------------------|


  E E E E E E Q     E Q  E E  Q   E
|----------------|------------------|
|-8---5---7---3--|-/7s5-------------|
|---0---0---0----|------------------|
|----------------|-/4s2--2-2--------|
|----------------|----------------2-|
|----------------|-----------/7--0-|


  +Q     Q   E  E  E  E    E  E  E  E  E  E  E  E
|-----------12-------14-|-------16-------17--------|
|-----------------------|--------------------------|
|------/13-----13s14----|-14s16----16s18----18s19--|
|-----------------------|--------------------------|
|-(2)-------------------|--------------------------|
|-(0)-------------------|--------------------------|


                      ~~~~~~~~~                       PM----|
                                                      |-3-|
   E  +Q   E Q  E E   H    +Q.   E    Q  E E E E Q    E E E E  E   +Q    E E
|-19-(19)-----------|--------------||---------------|-------------------------|
|-------------------|-7----(7)---5-||---------------|--------------------7-5--|
|-19-(19)---------x-|-7----(7)---5h||=6-------------|--------------------7-5h=|
|-----------------x-|-7----(7)---5-||---------------|--------------------7----|
|-------------------|--------------||---------------|-------------------------|
|-------------------|--------------||----3p0-5p0-3--|-5-3-0-3-[5]-([5])-------|


  Q   a      +Q     a      +Q     a      +Q
|----------------------------------------------|
|----------------------------------------------|
|-6--------------------------------------------|
|----------------------------------------------|
|----[3]b4==([4])--[3]b4==([4])--[3]b4==([4])--|
|----------------------------------------------|


   a      +Q     E      +E    +E    +E   E E   E E E E E E E E   E E E E E E E E
|--------------------------------------------|-----------------|-------------------|
|----------------------------------------7-5-|-----7-5-----7-7h|=8---7-5-----7-----|
|----------------------------------------7-5h|=6---7-5h6---7-7-|-9---7-5h6---7-6s==|
|----------------------------------------7-5-|---7---------7---|---------------7s==|
|-[4]b5==([5])--[4]b7==([7])-([7])r([4])-----|-----------------|-------------------|
|--------------------------------------------|-----------5-----|---5-------5-------|


  Q  Q  Q  E  E    E E E E E  E   E  E
|----------------|---------------------|
|----------------|----------------5s=3-|
|-4--------------|------------6--(6)s4-|
|-5--------------|-5p0-4-5s7-(7)-(7)s5-|
|-------5--4p(0)-|---------------------|
|----3-----------|---------------------|


                    2.5____________________
  +Q   Q  Q  E E    H        +E  E  E  E
|------7--7--7---|-[5]-------(5)-----------|
|-(3)--5--5--5---|-(0)-------------12-17---|
|-(4)--4--4--4---|-(0)-------------12-17h==|
|-(5)------------|-----------------12-17---|
|--------------0-|-------------------------|
|----------------|-------------------------|


   Q   Q   E  E  Q           E  E E      E +Q    E  E
|-------------------------|---------------------------|
|-------------------------|---------------------19-17-|
|-18---------------------|---------------------19-17h|
|-------------------------|---------------------19-17-|
|-------------------------|--------------0-(0)--------|
|------3--[5]p0-[3]b3.5===|=[5]p0-3b3.5===============|


                        1.5___/
   E  E E E E E E E   E E     +E  +E  +Q    E  E
|-------------------|------------------------------|
|----19s7p0---------|----------------------19-17---|
|-18--------6p0-----|----------------------19-17h==|
|---------------5p0-|----------------------19-17---|
|-------------------|-4p0-----(0)-(0)-(0)----------|
|-------------------|------------------------------|


   E E  E  E  E E  E   E   E E  E  E  E E  E  E    Q  E E E E E E
|------------------------|----------------------|-----------------|
|------19-17------19-/20-|-----19-17------19-17s|=15--------------|
|-18---19-17h18---19-/21-|-----19-17h18---19-18s|=16--------------|
|------19-17------19-/21-|-----19-17------19-19s|=17--5p0-7p0-9p0-|
|----0----------0--------|---0----------0-------|-----------------|
|------------------------|----------------------|-----------------|


                                                   ~~~
   E E  E E  E  E  E  E    +Q     Q    Q    Q      H.       Q
|-----------------------|-----------------------|---------------||
|-----------14s15s14s12-|-(12)------------------|------------||
|-----------14s15s14s13-|-(13)--------|---------------||
|-11p0-12p0-14s15s14s12-|-(12)-----------|---------------||
|-----------------------|-----------------------|---------------||
|-----------------------|-----------------------|----------10--||


                            |--3--|
  Q.   E +Q   Q    +E    E  E  E  E  E  E  +Q
|----------------|-------------------------------|
|-3----3-(3)-----|---------17p14----12-14-(14)--|
|-0----2-(2)--2--|-(2)-----14----------14-(14)--|
|-0----0-(0)--2--|-(2)-/14-------14-12-14-(14)--|
|-------------0--|-(0)---------------------------|
|-3--------------|-------------------------------|


                        ~~~~~~~~~~
    E  E  E  E  +E   E  Q     +Q   Q  E Q.
|--------------------------|-----------------|
|--------12-10-(10)-10-10--|-(10)--8--7s5----|
|-----12-------------------|-----------------|
|-/12------------------11--|-(11)--9--7s5----|
|--------------------------|-----------------|
|--------------------------|-----------------|


                                              ~~~
                                  |--3--|
    Q.     E  +Q    Q     +E   E  E  E  E  E  Q.
|--------/14-(14)------|---------------12----------|
|-/12----/15-(15)--14--|-(14)----12h14----12-------|
|-/12--------------14--|-(14)-14-------------14----|
|-/12--------------14--|-(14)----------------------|
|----------------------|---------------------------|
|----------------------|---------------------------|


   E E  E   E   E Q   E    E Q   E  E Q   E
|-----------------------|--------------------|
|-15-------15s=14----14s|=12----12s10----10s=|
|----0------------0-----|----0--------0------|
|------12-(12)s11----11s|==9-----9s=7-----7s=|
|-----------------------|--------------------|
|-----------------------|--------------------|


  E Q  E Q  Q    E Q  E +E  E E  E
|--------------|-------------------|
|-8----8s7--5--|-7s5--5-(5)--------|
|---0----------|-------------------|
|-5----5s4--2--|-4s2--2-(2)--------|
|--------------|------0-(0)------2-|
|--------------|------------0-7-0-|


  +Q     Q   E  E  E  E    E  E  E  E  E  E  E  E
|-----------12-------14-|-------16-------17--------|
|-----------------------|--------------------------|
|------/13-----13s14----|-14s16----16s18----18s19--|
|-----------------------|--------------------------|
|-(2)-------------------|--------------------------|
|-(0)-------------------|--------------------------|


                                  Interlude
                   ~~~~~~~~~
   Q   Q  E E Q    H    +Q.   E    H    E E E E   +H     E  E  Q
|-19-----x------|--------------||--------------|-------------------|
|----------------|-7----(7)---5-||-7----7---5s7-|-(7)----7s10-10s===|
|-19------------|-7----(7)---4-||-6----6-0-4s6-|-(6)----6s=9--9s===|
|----------------|-7----(7)-----||--------------|-------------------|
|----------------|--------------||--------------|-------------------|
|----------------|--------------||--------------|-------------------|


        

ĂŽnscrie-te la newsletter


Like us on Facebook