Juice Tab - Steve Vai






Music :Juice
 Album :Alien LovE SecretS
-------------------------
// = Vibrato
/   = Slide Up
   = Slide Down
ha  = Harmonic
b = bend 1 whole step
1/2 = bend half step
^ =  Hammer / pull-off
P.m = Palm mute
------------------------

Intro:
    G                              G#
E|-------------------------------------------------------------------------|
B|---8-8-8-8-8-8-8-8-8-8-8-8-8-8--8-9--|--------------------------|--------|
G|---7-7-7-7-7-7-7-7-7-7-7-7-7-7--7-8--|---14--------------------|--------|
D|---5-5-5-5-5-5-5-5-5-5-5-5-5-5--5-6--|--------------------------|--------|
A|-------------------------------------|---------ha-ha----ha------|ha------|
E|-----------------------------------------------3--5-/-0--3-/-0----5-/-0--|

                 P.m....................]
E|-------------------------------------------------------------------------|
B|--------------------------------------|----------Ha--Bar-----------------|
G|--------------------------------------|-----------5--5//----------------|
D|--------------------------------------|-----------------//-------------|
A|--ha-----0-----------ha-------ha------|--0------2------------------------|
E|--3-/-0-----0--5---5--3-/-5----5/0--3------3--5-0----------------3-/-0---|


E|----------------------b--------------------------------------------------|
B|----------------------8-------------------|-----5---------------|--------|
G|--------------------------5/0-------------|---7-5/6-------------|--------|
D|---------------------------------------7--|---7-----------------|--------|
A|---b---------------------------/53----7--|---------------------|--------|
E|---5/--5-/3-5----0-----------------3--5----5--------3--5/0-3/0--5/03/0-|


E|-------------------------------------------------------------------------|
B|------------------------------------|-------------3--------7----Ha-------|
G|------------7-5-/-6-----------------|-------------2--5/6---7-5/6-5-------|
D|------------7-5---------------------|---------2--0--------7-------------|
A|----------0-------------------------|-----b--------------0---------------|
E|--5/03/0---------------3/0-5/0-3/0---5/0-3------------------------------|


E|-------------------------------------------------------------------------|
B|---------Ha-------X-----------|------------|-----------------------------|
G|--7-7/9--9--7-5/6---7-6--4---|------------|-------------7--5-/-6--------|
D|--7-7/9-----7-5-----7-7--5---|------------|----------7--7--5------------|
A|------------------------------|------------|-----------------------------|
E|---------------------------------3-5/0-3/0---5/0-3/5-5-------------------|

E|-------------------------------------------------------------------------|
B|--------------------------------7-5-----------------5--------------------|
G|----------------------7-5-/6----7-5-/-6---7--7/8-7--5-/-6-----7-6-4-----|
D|-------------------7--7-5-------7-5-------7--7/8-7--5---------7-7-5-----|
A|-7/105/742

ĂŽnscrie-te la newsletter


Like us on Facebook