Liberty (ver2) Tab - Steve Vai






Artist: Steve Vai
Track: Liberty
Album: Passion and Warfare

Email: theantichrist76@aol.com give me something to tab so i have something to do

vib = vibrato              () = ghoast note (fret = note)
h = hammer                  x = left hand mute
p = pull                    pm = palm mute
/ = slide up                pb = pre bend(number = step)
 = slide down              tr = trill
b = bend (number = step)    w/bar = tremlo bar (wammy bar)
r = release                 t = tap
gr = gradual release        lt = left hand tap
+ and note = rake           p.h = Pinch Harmonic
h = Harmonic

w/Distortion and Delay

|---------------------------------------------------------------|
|---------------------------------------------------------------|
|-/13---14--16--/16---16-14--13---11----13--14--14---14-13--11--|
|---------------------------------------------------------------|
|---------------------------------------------------------------|
|---------------------------------------------------------------|


                                               w/bar------------
|----------------------------------------------------------------|
|----------------------------------------------------------------|
|---9---11--13--/13--13-11---9--11-------------------------------|
|------------------------------------9--9-----(9)----------------|
|----------------------------------------------------------------|
|----------------------------------------------------------------|


                 b2   (b2) b2  b1---r                 b1(vib)r
|-----------------------------------------------------------------|
|-----------------------------------------------------------------|
|--/13---14--16--14---14--14---13--(13)--11---13--14--13-----(13)-|
|-----------------------------------------------------------------|
|-----------------------------------------------------------------|
|-----------------------------------------------------------------|


  b2(vib)                                                       vib
|---------------------------------------|---------------------------|
|---------------------------------------|-12----14----14--------14--|
|-11------13h14p11--9h11--11/13--1311--|-14b2--16b2--16b2------16--|
|---------------------------------------|---------------------------|
|---------------------------------------|---------------------------|
|---------------------------------------|---------------------------|


                        vib
|---------------------|---------------------------------------------|
|-10----12-----12-----|-12----9----10----10--------9-----7-----7----|
|-12b2--14b2---14b2---|-14---11b2--12b2--12b2-----11b2---9b2---9b2--|
|---------------------|---------------------------------------------|
|---------------------|---------------------------------------------|
|---------------------|---------------------------------------------|



|--------------------------------------------------------------------|
|-9/19-19-17-16------------------------------------------------------|
|---------------1614---------------------------13h14p13----13-14-16-|
|---------------------16-1413h14p13---13-14-16----------16----------|
|------------------------------------16------------------------------|
|--------------------------------------------------------------------|


                                             b2   b2  b1     b2  b2
|----------------------14h16p14----14-16-17--17---19--21-----19--17--|
|-14h16p14----14-16-17----------17-----------------------------------|
|----------16--------------------------------------------------------|
|--------------------------------------------------------------------|
|--------------------------------------------------------------------|
|--------------------------------------------------------------------|


  b1  b2  b2    b2  b1  b2  b1  b2    b1  b2  b2
|-16--17--19----17--16--14--16--17----16--14--17----16-14-14-|
|------------------------------------------------------------|
|------------------------------------------------------------|
|------------------------------------------------------------|
|------------------------------------------------------------|
|------------------------------------------------------------|


                       w/bar---   b2(vib)         b2(vib-------r
|-------------------12----------|-14------17--19--17------17-(17)--16-|
|-161412h14p12----12----------|-------------------------------------|
|----------------14-------------|-------------------------------------|
|-------------------------------|-------------------------------------|
|-------------------------------|-------------------------------------|
|-------------------------------|-------------------------------------|


       b1                                     b2(vib)b2(vib)
|-14---16--17--16---16--16--14---12---14--16--14-----14-----12/16-19-17-16-|
|--------------------------------------------------------------------------|
|--------------------------------------------------------------------------|
|--------------------------------------------------------------------------|
|--------------------------------------------------------------------------|
|--------------------------------------------------------------------------|


  b2                                     b2    b2
|----------------+16--19---19--19---/12--14----14---12--19----------------|
|-19-17-------+17---------------------------------------------17----------|
|-------16-+18---------------------------------------------16------16-----|
|---------------------------------------------------------------14--------|
|---------------------------------------------------------------------12--|
|-------------------------------------------------------------------------|


  p.h                br             b2-----r
|---------12p11-9---------14---16---14---(14)--16-16-16-17p16p14----14-|
|-----------------12/16------------------------------------------17----|
|----------------------------------------------------------------------|
|-149-----------------------------------------------------------------|
|----------------------------------------------------------------------|
|----------------------------------------------------------------------|


                                      p.h(vib)
|----------------------------------------------------------------------|
|-17-15-14-14-14-14h15p14----14----------------------------------------|
|-------------------------16----16-14-16-------13-13-13-14p13p11----11-|
|----------------------------------------------------------------14----|
|----------------------------------------------------------------------|
|----------------------------------------------------------------------|



|------------------------------------------------------------------|
|------------------------------------------------------------------|
|------------------------------------------------------------------|
|-14-12-11-11-11-11h12p11----11------------------------------------|
|-------------------------14----14-12-11h12p11---11----------------|
|----------------------------------------------14---14-128h10h12--|


                                           T          T
|---------------------------------8h10h12-17-12p10p8-------------|
|-------------------------8h10h12--------------------17-12p10p8--|
|-----------------9h10h12----------------------------------------|
|---------9h10h12------------------------------------------------|
|-8h10h12--------------------------------------------------------|
|----------------------------------------------------------------|



   T                 h   b2
|------------------------------------------------------------------|
|-15-6h8p65h6h8p6p5-----------------------------------------------|
|--------------------7p5-7--7p5h74h5h7p5p4------------------------|
|-------------------------------------------7p5/1275h7p54h7p5p4-|
|------------------------------------------------------------------|
|------------------------------------------------------------------|


         p.h                h    w/bar dive
|------------------------------------------------1914/16--|
|----------------------------------------------------------|
|----------------------------------------------------------|
|----------------------------------------------------------|
|-7p5/7--7----5h7p53h7p5p3--------------------------------|
|---------------------------7-5p0-------------------------|


ĂŽnscrie-te la newsletter


Like us on Facebook