Lotus Feet Tab - Steve Vai






Steve Vai - Lotus Feet

Tuning: Standard (E A D G B E)

E|----------------------------------------------------------------||
B|--17-16--12------14-16-17-16-12---------------9-----------------||
G|------------11------------------11----11--13-13-----------------||
D|----------------------------------------------------------------||
A|----------------------------------------------------------------||
E|----------------------------------------------------------------||

E|----------------------------------------------------------------||
B|----------------------------------------------------------------||
G|----------------------6-8-9-------------------------------------||
D|--------------4-6-7-9-------------------------------------------||
A|--------4-6-7---------------------------------------------------||
E|--4-5-7---------------------------------------------------------||

E|----------------------------------------------------------------||
B|----------------------------------------------------------------||
G|-/13--------------------------/13-------------------------------||
D|-----11---9-11-11/13-11-9---------11--9-11--11/13--11-9-9/13----||
A|--------------------------11------------------------------------||
E|----------------------------------------------------------------||

E|-16---------------------------14-12-----------------------------||
B|----14----12-14-16-14-12------------14-12-----------------------||
G|-------------------------13---------------13--------------------||
D|---------------------------------------------14-11--------------||
A|----------------------------------------------------------------||
E|----------------------------------------------------------------||


E|-14/16-------------------------------||
B|-------14--12-14-14/16-14-12-14/16---||
G|-------------------------------------||
D|---
----------------------------------||
A|-------------------------------------||
E|-------------------------------------||

E|----------------------------------------------------------------||
B|-17--19-16-15/17-14--/12--12--14-16-17-19-16-15/17-14-14/16-12--||
G|----------------------------------------------------------------||
D|----------------------------------------------------------------||
A|----------------------------------------------------------------||
E|----------------------------------------------------------------||

E|-------14--14b-12-----------15--15b-14--------------------------||
B|-12-15------------15--12-15------------15-------15-17--17b-15---||
G|------------------------------------------14/16---------------17||
D|----------------------------------------------------------------||
A|----------------------------------------------------------------||
E|----------------------------------------------------------------||


E|--------17--17b--15--------------15-16-18-19b~----19------------||
B|-15--18-------------18--15-17-18----------------------17-(17)---||
G|----------------------------------------------------------------||
D|----------------------------------------------------------------||
A|----------------------------------------------------------------||
E|----------------------------------------------------------------||


E|-15~------------------------------------------------------------||
B|----17-18-17-15-17~-15-------15---------------------------------||
G|-----------------------17-14------14-16-14-17----14/16-14-------||
D|----------------------------------------------14----------------||
A|----------------------------------------------------------------||
E|----------------------------------------------------------------||


E|----------------------------------------------------------------||
B|--------12-15~--15-12-------------------------------------------||
G|--12-14---------------14-12-14B-14-12---------------------------||
D|--------------------------------------14-12-10------------------||
A|-----------------------------------------------12-10-8531

ĂŽnscrie-te la newsletter


Like us on Facebook