Paganini 5th Caprice Tab - Steve Vai






Author: Steve Vai
Tabber: Fingersofflame
Tuning: Standard EADGBe
E |------|-------------5-8-128--------------|---------------4-74-----|
B |------|-----------5----------10---1-------|---------0---5-------5---|
G |------|-------2-5---------------9---2-----|-------1---7-----------7-|
D |------|-----2-------------------------2---|---0/2-------------------|
A |------|-0/3-----------------------------3-|-2-----------------------|
E |------|-----------------------------------|-------------------------|

E |--------|-----------------5---------------|-----------------10-1310-|
B |0-------|-------------5-8---85-----------|---------3----10----------|
G |--1-----|-------0---6-----------6---0-----|-------2---10-------------|
D |----2-0-|-----2---7---------------7---2---|---0/3--------------------|
A |--------|-0/4---------------------------4-|-0------------------------|
E |--------|---------------------------------|--------------------------|

E |---------------|---------------4-74-------------|-------------------|
B |-10----3-------|---------0---6-------6---0-------|---------------5---|
G |----10---2-----|-------1---7-----------7---1-----|-----------5-----5-|
D |-----------3-0-|---0/3-----------------------3-0-|---2---5-----7-----|
A |---------------|-2-------------------------------|-0---3---7---------|
E |---------------|---------------------------------|-------------------|

E |-5---8----12----16-|------|---------------------------------|-------|
B |---5---10----13----|------|---------------------------------|-------|
G |-------------------|------|-------------------2

ĂŽnscrie-te la newsletter


Like us on Facebook