The Audience Is Listening Tab - Steve Vai






#----------------------------------PLEASE NOTE---------------------------------#
#This file is the author's own work and represents their interpretation of the #
#song. You may only use this file for private study, scholarship, or research. #
#------------------------------------------------------------------------------#

"The Audience is listening" by Steve Vai

This is my first tribute to all you Vai-fans out there.
This cool song is quite tricky at first, so pay close allention
to the rythm. One you've memorised the rythm in your head,
then the rest is child-stuff, exept for the speed of the song.

If there is interest in me tab-ing the rest of the song, I can do it.
Mail your comments to this adress:



See ya!
Andreas Jonsson/Sweden

               -------|
                  ---------|


   (1:16)    You're getting out of control.....
E-|-------------------------3---------------------|-------------------------3-|
B-|------------------7------3---------------------|------------------7------3-|
G-|-----2-----5------7-----------------2-------2--|-----2-----5------7--------|
D-|-----2-----5------------------------2-------2--|-----2-----5---------------|
A-|-3p0----/7---6-5-----3-----2--0---------------|-3p0----/7---6-5-----3----|
E-|----------------------------------3---3-2-1----|---------------------------|

                                       P.H---|                   P.H
E-|------------5-------8---------5---|-----------------------|----------------|
B-|------------5-------8---------5---|-----------------------|----------------|
G-|----------------------------------|-----------------------|----------------|
D-|----------------------------------|-----------------------|----------------|
A-|--2--0---/6----6/7-----5h6h7------|---5-------------------|----------------|
E-|----------------------------------|------7--5--3--5p3-0-0-|-3--5b(6)r5--3p0|

    P.H--|     P.H--|                   P.H
E-|----------|----------------------|-----------------------------------------|
B-|----------|----------------------|-----------------------------------------|
G-|----------|----------------------|-----------------------------------------|
D-|----------|----------------------|------------------0--2-------------------|
A-|--5b(7)---|--5-------------------|------------------0--2-------------------|
E-|----------|-----7--5--3--5p3-0-0-|-3--5b(6)r5--3p0-----0-------------------|

ĂŽnscrie-te la newsletter


Like us on Facebook