Enough Is Enough Tab - Stick To Your Guns






I think it's correct....I didn't add the number of times each part is 
played....its pretty easy if you listen to the song.

Tuning=Drop CGCFAD

Intro:
|-------------------------------------------------------|
|-------------------------------------------------------|
|-------------------------------------------------------|
|-7----------------------------------------------------|
|-5------------------33-00-78--8-10-12-----------------|
|-----0000-00-0000-00-33-00-78--8-10-12-----------------|

Verse:
|-------------------------------------------------------|
|-------------------------------------------------------|
|-------------------------------------------------------|
|-7--------------------------5/7-----------------------|
|-5-----------------33-00-78-3/5-----------------------|
|-----0000-0000-0000-33-00-78---------------------------|

Chorus:
|-------------------------------------------------------|
|-------------------------------------------------------|
|-------------------------------------------------------|
|-8-10--12--10--12--15--14------------------------------|
|-5--7---8---8---8--12--10--3---------------------------|
|-5--7---8---8---8--12--10--3---------------------------|

Breakdown:
|-------------------------------------------------------|
|-------------------------------------------------------|
|------5/777------555-----------------------------------|
|-------------------------------------------------------|
|-3-00-3/555-5030-333-5030--50--363252------------------|
|-3-00-------5030-----5030--50--363252------------------|

One Life, One Time, Lets Make Things Right!:
|-------------------------------------------------------|
|-------------------------------------------------------|
|-------------------------------------------------------|
|------------------------5/7----------------------------|
|---------------0--------3/5----------------------------|
|-000000-000000-0-000000--------------------------------|

You should be able to figure out where everythign is palm muted




ĂŽnscrie-te la newsletter


Like us on Facebook