Our Demise Tab - Stick To Your Guns






well this is what i can make out of it
its in drop c

D|
A|
F|
C|
G|
C|

00:00-00:03
D|--------|
A|--------|
F|--------|
C|-8-5-0~-|
G|-8-5-0~-|
C|-8-5-0~-|

strum octave chords, a total of two times
00:04-00:21
D|----------------------------------------------|
A|----------------------------------------------|
F|-10------9-------10------9------7------6------|
C|-x-(x16)-x-(x16)-x-(x16)-x-(x8)-x-(x4)-x-(x4)-|
G|-8-------7-------8-------7------5------4------|
C|----------------------------------------------|

00:22-00:23
D|--------------|
A|--------------|
F|--------------|
C|-00-000-0-0-0-|
G|-00-000-0-0-0-|
C|-00-000-0-0-0-|

part with out any bass or something, i dont think theres any guitar in there

00:31-00:39
D|------------------------------------------------------------------|
A|------------------------------------------------------------------|
F|-1010-10-10-10-99-9-77-7-1212-12-12-12-1010-10-99-9-151515-151515-|
C|-x-x--x--x--x--xx-x-xx-x-x-x--x--x--x--x-x--x--xx-x-x-x-x--x-x-x--|
G|-8-8--8--8--8--77-7-55-5-1010-10-10-10-8-8--8--77-7-131313-131313-|
C|------------------------------------------------------------------|

D|-------------------------------------|
A|-------------------------------------|
F|-141414-141414-101010-101010-777-666-|
C|-x-x-x--x-x-x--x-x-x--x-x-x--xxx-xxx-|
G|-121212-121212-8-8-8--8-8-8--555-444-|
C|-------------------------------------|

something along these lines... but ur gonna have to add more i dont fee like figuring 
part out... i need to watch the office pretty soon hah
00:40-01:00
D|------------------------------------------------------------------|
A|------------------------------------------------------------------|
F|-7-10---7-10-----7-9-10-12-10-9-7-7-10---7-10----7-9-10-12-10~-9~-|
C|-x-x--0-x-x--00--x-x-x--x--x--x-x-x-x--0-x-x--00-x-x-x--x--x---x--|
G|-5/8--0-5/8--00--5/7/8--10-8--7-5-5/8--0-5/8--00-5-7-8--10-8~--7~-|
C|------0------00------------------------0------00------------------|

1:00-1:12
D|-------------------------------------------|
A|-------------------------------------------|
F|-------------------------------------------|
C|-0-----------------------------------------|
G|-0-000-3-2-0-3-2-000-3-2-3-2-1-000---------|
C|-0-000-3-2-0-3-2-000-3-2-3-2-1-000-3






Like us on Facebook