This Is More Bass Tab - Stick To Your Guns






                      Stick to your guns - This is  more (bass tab)

Guitar 1
D|-------|
A|-------|
F|-7777--|
C|-7777--|
G|-5555--|
C|-------|

Bass

F|--------------------------------------------------------------|
C|--------------------------------------------------------------|
G|-5555---------5555------------5555----------8-8-8-8-8/7777777-|
C|-------------------000-000-000--------------------------------|


Bass

F|--------------------------------------------------------------|
C|--------------------------------------------------------------|
G|-5555---------5555------------5555----------8-8-8-8-8/7777777-|
C|-------------------000-000-000--------------------------------|

Bass

F|-----------------------|
C|-----------------------|
G|-8~--8---8-8--------5~-|
C|-----------------------|
|

Guitar 2 (guitar 1 keeps letting it ring)
D|-------------------|
A|-------------------|
F|-------------------|
C|0---3---5---8--7-5-|
G|-------------------|
C|-------------------|


Bass
F|---------------------------------|
C|---------------------------------|
G|1212121210101010-8-8-8-877777777-|
C|---------------------------------|


F|------------------------------------|
C|------------------------------------|
G|55555555577-8-8-8-810101010-8-87777-|
C|------------------------------------|


Bass
F|---------------------------------|
C|---------------------------------|
G|1212121210101010-8-8-8-877777777-|
C|---------------------------------|


F|------------------------------------|
C|------------------------------------|
G|55555555577-8-8-8-810101010-8-87777-|
C|------------------------------------|

Bass
F|---------------------------------|
C|---------------------------------|
G|1212121210101010-8-8-8-877777777-|
C|---------------------------------|

Guitar 1
D|--
A|--
F|7~
C|7~
G|5~
C|--
|
Guitar 2
D|------------------------------|
A|------------------------------|
F|------------------------------|
C|7-7--77-7-7--77-7-77--77-7-77-|
G|5-5--55-5-5--55-5-55--55-5-55-|
C|------------------------------|
  . .  .. . .  .. . ..  .. . ..

Bass

F|---
C|---
G|6-6
C|---





Guitar 1
D|--
A|--
F|7~
C|7~
G|5~
C|--
|
Guitar 2
D|------------------------------|
A|------------------------------|
F|------------------------------|
C|7-7--77-7-7--77-7-77--77-7-77-|
G|5-5--55-5-5--55-5-55--55-5-55-|
C|------------------------------|
  . .  .. . .  .. . ..  .. . ..

Bass

F|---
C|---
G|6-6
C|---


Bass

F|------------------------------------------------|
C-------------------------------------------------|
G|-------------------6-6-------------------6-6----|
C|------------------------------------------------|

"MOVE!"


Bass
F|------------------------------|
C|------------------------------|
G|------------------------------|
C|0-0--00-0-0--00-0-00--00-0-00-|
    .  .. . .  ..   ..  .. . ..

Bass

F|---
C|---
G|6-6
C|---
|



Bass
F|------------------------------|
C|------------------------------|
G|------------------------------|
C|0-0--00-0-0--00-0-00--00-0-00-|
    .  .. . .  ..   ..  .. . ..

Bass

F|---|
C|---|
G|6-6|
C|---|


Bass
D|----------------------------|
A|----------------------------|
F|----------------------------|
C|----------------------------|
G|----------------------------|
C|3-3--33-3-3-33-3-33-33-3-33-|

Bass

F|---
C|---
G|6-6
C|---


Bass
F|------------------------------|
C|------------------------------|
G|------------------------------|
C|0-0--00-0-0--00-0-00--00-0-00-|
    .  .. . .  ..   ..  .. . ..

Bass

F|---
C|---
G|6-6
C|---


Bass
F|--------------------------------|
C|--------------------------------|
G|5-~----5~----5~-----5-5---------|
C|--------------------------------|
|

THE END






Like us on Facebook