Razorblades Bass Tab - Story Of The Year






Intro/Verse: 4x
G|--------|---------------------|
D|--Rest--|---------------------|
A|--------|---------------------|
E|--------|---3333333333333333--|

(Play this part during 2nd part of intro and before going to the chorus)
G|--------|-------------------------|
D|--Rest--|-------------------------|
A|--------|-------------------------|
E|--------|55-33335555777710101010--|
*Those are 10's

(Play this every time that the part above isn't)
G|--------|---------------------|
D|--Rest--|---------------------|
A|--------|---------------------|
E|--------|55-3333333333333333--|

Fill 1
G|------------|
D|------------|
A|--5~--------|
E|-----5-3-3--|

Verse: 2x

Fill 2
G|-----|
D|-----|
A|-5~--|
E|-----|

Chorus: 1x
G|---------------------------------------------------------------------|
D|---------------------------------------------------------------------|
A|-5555555555555555----------------------------------------------------|
E|-----------------5555555555555555777333333333333777333333333333------|

G|--------------------------------------------------------------------|
D|--------------------------------------------------------------------|
A|-5555555555555555---------------------------------------------------|
E|-----------------55555555555555557777777777777777333333333333333333-|

Verse: 1x

Chorus: 1x
End Chorus on:
E|-3~-|

Bridge: 2x
G|-------------------------------------------|
D|-------------------------------------------|
A|-5~xx-5~xx-5~xx-5--------------------------|
E|-----------------5-333333333333333333333333|

Interlude: 1x
G|------|--------------------|
D|------|--------------------|
A|-Rest-|--------------------|
E|------|--3333333333333333--|

G|-------|-------------------------------|
D|-------|-------------------------------|
A|-Rest--|-------------------------------|
E|-------|55-3333-5555-7777-1010-77-(2x)-|
*Those are 10's

Chorus: 2x

Outro:
G|------------------------------------------------------------------------|
D|------------------------------------------------------------------------|
A|-5555555555555555-------------------------------------------------------|
E|------------------5555555555555555-777333333333333-777333333333333------|

G|---------------------------------------------------|
D|---------------------------------------------------|
A|-5555555555xxx555----------------------------------|
E|------------------5555555555555555-7-7-7-7-7-7-7-7-|

G|-------------------------------------------------|
D|-------------------------------------------------|
A|-------------------------------------------------|
E|-3-3-3-3-3-3-3-3-3-3-3-3-3-3-3-3-3-3-3-3-3-3-3-3-|

G|------------------------------------|
D|------------------------------------|
A|-5~xx-5~xx-5~xx-5-x-x-5-x-x-5-5-5~--|
E|--------------------------------5~--|

Plz, vote this tab.
Keep on rockin'

ĂŽnscrie-te la newsletter


Like us on Facebook