Aluminum Union Intro Tab - Strike Anywhere






1|-------------------------|
2|-------------------------|
3|---------------9-9-------|
4|-11-11-11-9-11-9-9-9-9-9-| X2
5|-11-11-11-9-11-7-7-9-9-9-|
6|--9--9--9-7-9------7-7-7-|

1|---------------------|
2|---------------------|
3|-----------7-7-------|
4|-7-7-7-7-7-7-7-9-9-9-| X2
5|-7-7-7-7-7-5-5-9-9-9-|
6|-5-5-5-5-5-----7-7-7-|

That's all the chords in order, but you'll have to work out the rhythm yourself.






Like us on Facebook