Chalk Line Tab - Strike Anywhere






Intro:
e|-x-------------------------------------------------------------|
B|-x-------------------------------------------------------------|
G|-x-44-2-444444-7-9-11-12-11-9-7-6---4--2-4-44444-7-7777--------|
D|-x-44-2-444444-x-x--x--x-x--x-x-x---4--2-4-44444-x-xxxx-7-77777|
A|-x-22-0-222222-5-7--9-10-9--7-5-4---2--0-2-22222-5-5555-7-77777|
E|-x------------------------------------------------------5-55555|

Verse (p1): (:19)  
e|-----------|   
B|-----------|  
G|-4~~~--4~~~|   
D|-x~~~--x~~~|   
A|-2~~~--2~~~|   
E|-----------|  

Chorus: (:29)
e|-------------------------------------------------------|
B|-------------------------------------------------------|
G|---------------444444444444---------------4444444444-4-|
D|-555555-777777-444444444444-555555-777777-4444444444-4-|
A|-555555-777777-222222222222-555555-777777-2222222222-2-|
E|-333333-555555--------------333333-555555--------------|
PM  .....  .....  ...........  .....  .....  .........

(p2)
e|-------------------------------------------------------|
B|-------------------------------------------------------|
G|---------------444444444444---------------44444-44-44-4|
D|-555555-777777-444444444444-555555-777777-44444-44-44-4|
A|-555555-777777-222222222222-555555-777777-22222-22-22-2|
E|-333333-555555--------------333333-555555--------------|
.. .. .. ..
Bridge 1: (:47)
e|-x---------------------------------------------------------------------|
B|-x---------------------------------------------------------------------|
G|-x-1111-9-777777-7-9-11-12-11-9-7-6---11-9-777777-1414141414-777 7-b9r7|
D|-x-x-x--x-xxxxxx-x-x--x--x-x--x-x-x---x--x-xxxxxx-x-x-x-x-x--xxx-------|
A|-x-9-9--7-555555-5-7--9-10-9--7-5-4---9--7-555555-1212121212-555-------|
E|-x---------------------------------------------------------------------|

Verse 2: (:56)
e|-------------------------------|
B|-------------------------------|
G|-4444-2-4-44444-7777-----------|
D|-4444-2-4-44444-7777-5-7-77777-| X2
A|-2222-0-2-22222-5555-5-7-77777-|
E|---------------------3-5-55555-|
    ..      ....   ...     ..

Chorus 2: (1:05)
e|-------------------------------------------------------------|
B|-------------------------------------------------------------|
G|---------------444444444444---------------------4444444444-4-|
D|-555555-777777-444444444444-2h4p2-555555-777777-4444444444-4-|
A|-555555-777777-222222222222-------555555-777777-2222222222-2-|
E|-333333-555555--------------------333333-555555--------------|


(p2)
e|-------------------------------------------------------|
B|-------------------------------------------------------|
G|---------------444444444444---------------44444-44-44-4|
D|-555555-777777-444444444444-555555-777777-44444-44-44-4|
A|-555555-777777-222222222222-555555-777777-22222-22-22-2|
E|-333333-555555--------------333333-555555--------------|
  .. .. .. ..

Bridge 2: (p1) (1:24)
e|------------------------------------|
B|------------------------------------|
G|-----------------777-777------------|
D|-999-999-555-555-777-777-777-777----| X2
A|-999-999-555-555-555-555-777-777----|
E|-777-777-333-333---------555-555----|
   ..  ..  ..  ..  ..  ..  ..  ..


Verse 3: (p1) (1:33)
e|-------------------------------------------------------|
B|-------------------------------------------------------|
G|---------------7-7-xx----------------------7-777-------|
D|-9-9-xx-5-5-xx-7-7-xx-7-7-xx-9-9-xx-5-5-xx-7-777---






Like us on Facebook