Til Days Shall Be No More Intro Tab - Strike Anywhere






Drop D tuning.

1|---------0-------------------|
2|-----2-3---------------------|
3|-----------------------------|
4|-4-4---------2-2-22-4-4------|
5|-4-4---------2-2-22-4-4------|
6|-4-4-------0-2-2-22-4-4-0-00-|

1|---------0-------------------|
2|-----2-3---------------------|
3|-----------------------------|
4|-4-4---------2-2-22-4-4------| X2
5|-4-4---------2-2-22-4-4------|
6|-4-4-------0-2-2-22-4-4-0-00-|






Like us on Facebook