Rivers Of Babylon Solo Tab - Sublime






This is the Rivers of Babylon steel drum solo 
converted to guitar...
you can put vibratos in wherever you feel like it, 
cause the drum produces a natural vibrato feel
especially on the notes that are held for a while
you can put a slide 7/5 instead of playing part 
where you pluck 2 strings, thatll save the hastle
CAPO AT 1st FRET... or move every note up on, so 5
would be 6, etc... good luck send feedback, ive never
tried anything like this

|-------------------------|-------------------7-7-5-|
|-----4-4-5/7--7--7--5-7--|-----4-4-5/7--7--7-------|
|-5-5---------------------|-5-5---------------------|
|-------------------------|-------------------------|
|-------------------------|-------------------------|
|-------------------------|-------------------------|

|-------------------------|-------------------------|
|-------------------------|-------------------------|
|---4-5-4-----------------|-4-5----4--------4-------|
|---------7--7--7--7--7---|------7-5-5----7---7-5-5-|
|-------------------------|-------------------------|
|-------------------------|-------------------------|

ĂŽnscrie-te la newsletter


Like us on Facebook