Santeria Bass Tab - Sublime






Santeria
Sublime
_________________________
not sure about intro
_________________________

Verse and bridge
|----------------------------------------------------------------------------|
|------------------------7-h9-7h9--6-----------------------------------------|
|-7----------------7-7------------------6--------------------4-4-4-4-4-------|
|----7-h9-7-h9---------------------------4--4-h6-4-h6--------------7-7-7-77--|

only play -6
-----------------6---
-------------------4- the first time

other times play
|-------------------------|
|-6------------------6----|
|----6--h8--6--h8---------|
|------------------------4|

chorus

|-----------------------------|
|-------7-------9-------------|
|-----7-------9-----5-4-2-----|
|--5-------7------------------|

once again another butiful song tabbed by your friend Enemyoffline






Like us on Facebook