Die Schlacht Tab - Subway to Sally






Ich schreib mal in deutsch da die meisten auslnder die band nich kennen
Also das stcl is in Drop D Tuning das heisst die E Seite wird auf D runtergestimmt.....
habt spa mitm song

Refrain (unter anderem auch intro)

|---------------------------------------------------------------------------|
|---------------------------------------------------------------------------|
|---------------------------------------------------------------------------|
|-0-3-2-3-0-3-2-3-0-3-2-3--5--3---------------------------------------------|
|-0-3-2-3-0-3-2-3-0-3-2-3--5--3---------------------------------------------|
|-0-3-2-3-0-3-2-3-0-3-2-3--5--3---------------------------------------------|

Verschieden oft wiederholt....

Verse
|---------------------------------------------------------------------------|
|---------------------------------------------------------------------------|
|---------------------------------------------------------------------------|
|-0--0-0--0----0--0-0--0---5--5-5--5--8--8-8--8-----------------------------|
|-0--0-0--0----0--0-0--0---5--5-5--5--8--8-8--8-----------------------------|
|-0--0-0--0----0--0-0--0---5--5-5--5--8--8-8--8-----------------------------|

ĂŽnscrie-te la newsletter


Like us on Facebook