Feuerkind Intro Tab - Subway to Sally






Okay,I saw that this tab is very rare...or better said: just not there!^^
So I watched the one video closely where the guy plays it.
I don't know if it's exactly what Ingo's playing,but it sounds quite good I think!
I just need a bit more time to figure out what he plays in the chorus but here's the 
he plays all the time (except in the chorus^^)
Have fun with it!

Wieselchen


||-------------------------------------------------------------------||
||---------3-------------------3-----------3----------3--------------||
||-------0--------0----------0-----------0-----------0---------0-----||
||-----4--------4---4------4-----------4-----------4--------4----4---||
||---2--------2----------2-------------------------------------------||
||-----------------------------------2----------3---------3----------||


||------------------------||
||--------2----------4----||
||------0----------0------||
||----4----------4--------||
||------------------------||
||--2----------2----------||

ĂŽnscrie-te la newsletter


Like us on Facebook