Ohne Liebe Intro Tab - Subway to Sally






     H        Q    Q       H.           E  E     Q    Q    Q    Q     
E||--7--------5---------|---------------------|----------------------|
B||----------------5----|--7------------------|----------------------|
G||---------------------|---------------4--6--|--7----9----6---------|
D||---------------------|---------------------|-----------------7----|
A||---------------------|---------------------|----------------------|
E||---------------------|---------------------|----------------------|


  W                   H        Q     Q       H.           E   E   
-------------------|--7--------9----------|---------------9--10--|
-------------------|----------------10----|--8-------------------|
-------------------|----------------------|----------------------|
--9----------------|----------------------|----------------------|
-------------------|----------------------|----------------------|
-------------------|----------------------|----------------------|


   Q     Q    Q     Q       W                  
--12----10----9----10----|--9----------------||
-------------------------|-------------------||
-------------------------|-------------------||
-------------------------|-------------------||
-------------------------|-------------------||
-------------------------|-------------------||




Duration Legend
---------------
W - whole
H - half
Q - quarter
E - 8th
S - 16th
T - 32nd
X - 64th
. - note dotted

ĂŽnscrie-te la newsletter


Like us on Facebook