Traum Vom Tod Tab - Subway to Sally






-----------------------------------------------------------------------------
              TRAUM VOM TOD - Subway to Sally
-----------------------------------------------------------------------------
Tabbed by: Knackbacke
Email: knackbacke@freenet.de

Tuning: Standart

e|----7----9-----10---9----7---9------|----7-----9---10-9--7--7--|
B|-7-----------------------------7----|-7------------------------|
G|------------------------------------|--------------------------|
D|------------------------------------|--------------------------|
A|------------------------------------|--------------------------|
E|------------------------------------|--------------------------|
  Ich hab heut Nacht vom Tod getrumt, er stand auf allen Wegen,


e|-7--5--5---5--7---9----10---9---7---7-|
B|--------------------------------------|
G|--------------------------------------|
D|--------------------------------------|
A|--------------------------------------|
E|--------------------------------------|
  er winkte und er rief nach mir so laut.


e|------7----9---10-9---7--- 9-------|------7----9---10--9---7--7--|
B|-7-----------------------------7---|-7---------------------------|
G|-----------------------------------|-----------------------------|
D|-----------------------------------|-----------------------------|
A|-----------------------------------|-----------------------------|
E|-----------------------------------|-----------------------------|
  Er sprach mein Leben sei verwirkt,  ich sollt mich zu ihm legen


e|-7---5--5---5----7----9----10---9---7---7-|
B|------------------------------------------|
G|------------------------------------------|
D|------------------------------------------|
A|------------------------------------------|
E|------------------------------------------|
  ein frhes Grab sei lngst fr mich gebaut


e|-----7----9-10---9----7----9--------|---7---9---10-9----7--7-|
B|-7------------------------------7---|-7----------------------|
G|------------------------------------|------------------------|
D|------------------------------------|------------------------|
A|------------------------------------|------------------------|
E|------------------------------------|------------------------|
  Ich floh soweit das Land mich trug,  soweit die Vgel fliegen


e|-7--5----5---5--7---9-10--9---7---7---|
B|--------------------------------------|
G|--------------------------------------|
D|--------------------------------------|
A|--------------------------------------|
E|--------------------------------------|
 doch mir zur Seite sprte ich den Tod



e|-------7-9-----10-9---7--9-------|-----7---9---10--9---7--7-|
B|-7----------------------------7--|-7------------------------|
G|---------------------------------|--------------------------|
D|---------------------------------|--------------------------|
A|---------------------------------|--------------------------|
E|---------------------------------|--------------------------|
  Sein Schatten folgte meiner Spur, ich sah ihn bei mir liegen

e|-7---5--5--5-7---9-10---9-7---7--|
B|---------------------------------|
G|---------------------------------|
D|---------------------------------|
A|---------------------------------|
E|---------------------------------|
  und seine Hnde waren blutig rot


(Alles beibehalten, nur Text ndert sich.)


Da wute ich es weht der Wind und Regen fllt hernieder
auch wenn schon lngst kein Hahn mehr nach mir krht

Weil ich schon lngst vergessen bin
singt man mir keine Lieder
nur Unkraut grnt und blht auf jedem Feld

Nur Unkraut grnt und blht auf jedem Feld

ich hab heut Nacht vom Tod getrumt
es gibt kein ewig Leben
fr Mensch und Tier und Halm und Strauch und Baum


e|----10--9---5-----7-|-(5)-|-10--9---5-----7-|
B|--------------------|-----|-----------------|
G|--------------------|-----|-----------------|
D|--------------------|-----|-----------------|
A|--------------------|-----|-----------------|
E|--------------------|-----|-----------------|
... das war mein Traum   -   das war mein Traum

===============================================================================

ĂŽnscrie-te la newsletter


Like us on Facebook